#1
hello i was wondering if someone could help me figure out a harmony to this part of a song.


e--2------------------------------------------------------------------------
B--3------------------------------------------------------------------------
G--2------------------------3--2----------------------------3--0---------
D--0---------0--2--3--4--------------2----0--2--3--4------------------
A---------------------------------------2-----------------------------3^--
E---------------------------------------0-----------------------------------
-
i need the harmonies to all the single notes not the chords.


thanks,
ryan.
#2
common harmonies are thirds and fourths, so either 4 or 5 frets ahead or below those notes
Now officially has too much gear to list

PM me if you want to know about my recording setup
#3
so it would be.

e--------------------------------------------------------------------------
B--------------------------------------------------------------------------
G--------------------------7--6----------------------------7--4---------
D-----------4--6--7--8------------------4--6--7--8------------------
A--------------------------------------------------------------------7^--
E-------------------------------------------------------------------------- ????


sorry i dont think i understand.
#4
that's right, just decide for yourself whether you prefer the sound of thirds or fourths, and you can also use fifths, sixths, sevenths, or any other scalar degree.
Now officially has too much gear to list

PM me if you want to know about my recording setup