#1
ok, can anyone tell me the song thats on the e4 adverts at the minute?
#2
Which advert? There's like 10 different ones
wen i ask they say that they fall into the habit smhw ........but nyways i think there is a connection smwhere. Now i being a teetollar will not give into this habit nyhw

FOR JUST £2 A WEEK, YOU CAN PREVENT THIS.
#4
It's on a couple of em. Just figured out the riff.


e]-------------
B]-------------
G]-----------7--
D]-5b---------
A]-------8-5--
E]-----------

e]--------------
B]--------------
G]-----------7-5-
D]-5b---------
A]-------8-5--
E]-----------
#6
^It's not that one. The song I'm thinking of is a lot slower, with more of a 'stomp' to it. Sorry for being so vague.