#1
this is just a simple intro part to Marcus Miller's Power of Soul cover originally performed by Jimi Hendrix. It seemed like nobody made one of these yet, so I took it upon myself. I plan on tabbing the rest of it when I have the time to interpret it.

-----------------------------------------
-------0---0--4--0----------------1h2
--2-2---2----------2--1--0------------
-------------------------------3--0 ----

--------------------------------------1h2--0h1h0h1
-------0---0--4--0------------------------------------
--2-2---2----------2--1--0---------------------------
-------------------------------3--0 --------------------
Last edited by Vette77 at Oct 9, 2008,
#2
Submit it to the site when you did the whole song.Thanks.
Quote by zappp
emad I'm gonna ban you, seriously.