#1
Anyone got a good tab for she talks to angels? Is the one at ultimats guitar correct? dont sound right when i play it .
#2
You have to be in open E major when you play it. Are you tuned correctly? Also which tab are you using?
Bari Build

_\_\ll/_/_
__\ _ /__
___ \/ ___

#3
im in open e. here part of the tab im using.
e|-----5-------0-------0---------0-------5-------0-------0---------0-|
B|-4s5---4p2-0-------0-----------0---4s5---4p2-0-------0-----------0-|
G|---------------0h1-----1-1p0---0-----------------0h1-----1-1p0---0-|
D|-----------------------------0-0-------------------------------0-0-|
A|-------------------------------------------------------------------|
E|-------------------------------------------------------------------|

v ^ v v v ^ v v v v <N.H> v v ^ v v v v
e|-0-0-0--0-0-0-0-0-0-0------12---7---0-0-0-0-0-0-0------------------|
B|-0-0-0--0-0-0-0-0-0-0------12---7---0-0-0-0-0-0-0------------------|
G|-0-0-0--0-0-0-1-0-1-0------12---7---0-0-0-1-x-1-0------------------|
D|-0-0-0--0-0---2-0-2-0------12---7---0-0---2-x-2-0------------------|
A|-0-0-0--0-----0-0-0-0------12---7---0-----0-0-0-0------------------|
E|-0-0-0--0-----0-0-0-0------12---7---0-----0-0-0-0------------------|

v v ^ v v v v
e|-------------------------------0-0-0-0-0-0-0-----------------------|
B|-------------2p0---------0-----0-0-0-0-0-0-0-----------------------|
G|-----0-2p0---------2p0---------0-0-0-1-x-1-0-----------------------|
D|-2s4-------0-----0-----0---2-0-0-0---2-x-2-0-----------------------|
A|-------------------------------0-----0-0-0-0-----------------------|
E|-------------------------------0-----0-0-0-0-----------------------|
#4
Well, if I were you I'd download powertab (it's free) and use the powertab one. It's nice because it lets you see the rhythms whereas in the text tabs you can't really tell. I can't really tell if your tab is accurate either since I'm too lazy to tune my guitar to E major. Definitely get powertab though.
Bari Build

_\_\ll/_/_
__\ _ /__
___ \/ ___

#5
heres another which is the right one????
 e|------0---------0--+---------0---------+-----0------------+ (Repeat)
 B|--4s5---4s2--0-----|------0------------|-----0------------|
G#|-------------------|--0h1------1--1p0--|-----0------------|
 E|-------------------|-------------------|--0--0------------|
 B|-------------------|-------------------|------------------|
 E|-------------------+-------------------+------------------+

                                       (natural harmonics)
|------------------+------------------+---5-----7--------+------------------|
|--0-0-0---0-0-0---|--0--0--0--0------|---5-----7--------|------------------|
|--0-0-0---0-0-0---|--1--1--1--0------|---5-----7--------|------------------|
|--0-0-0---0-0-0---|--2--4--2--0------|---5-----7--------|------------------|
|--0-0-0---0-0-0---|--0--0--0--0------|---5-----7--------|------------------|
|------------------+------------------+------------------+------------------|
   v ^ v   v v ^      v  v  v  v         (sharp downward strokes)

|------------------+------------------+------------------+------------------|
|-----------0--0---|--0--0--0--0------|-------------2p0--|----------0-------|
|-----------0--0---|--1--1--1--0------|-------3p0--------|-0--3p0-----------|
|-----------0--0---|--2--4--2--0------|-2s4-4-----2------|--------2---2-----|
|-----------0--0---|--0--0--0--0------|------------------|------------------|
|------------------+------------------+------------------+------------------|
            v  ^      v  v  v  ve??


Tab coded by mod!