#1
If you ever knew how much this means to me you would help me without a doubt!

Im willing to pay some cash moneybookers or epassporte if you can help me!

Icq 42800100 for those that would tab it for cash and the link below for those that would do it just because.

Please understand that this tab is a matter of life and death for some reasons I can't explan right here on this forum.

I do not need the whole song. Just the solo parts:

Solo from start till 00:16
Solo from 01:19 to 01:44
Solo from 02:47 to 03:03

I believe solos are pretty easy for guys with a trained ear!

PLEASE PLEASE PLEASE!!!

http://apartmanicemeljic.com/gitara/Daleka%20Obala%20-%20Noc%20Je%20Prekrasna.mp3

Thank you in advance!!!
In order to succeed you have to be lucky - Ask any failure!
#3
Quote by ChicNStu0017
telling us what the song is might help

Dude the link that he posted leads directly to the song.

And sorry mate, can't help at all with the tabs. I hope somebody can get it for you soon, you sound pretty desperate.
#4
It's a croatian rock song. I found the chords on croatian forums but I can't find the tab and I've searched trough the entire Internet!

:-(
In order to succeed you have to be lucky - Ask any failure!
#7
Why is anything on this planet important? Because of a woman!
In order to succeed you have to be lucky - Ask any failure!
#9
tab for first solo 0-16
e |------------------7---5---3---5/7---8h10p8----------7h8p7\5-- -5/7--------------
B |---------------x-----------------------------------------------------------------------------
G |--7/9-------4-------------------------------------------------------------------------7-9
D |------------sweep------------------------------------------------------------7/9--------
A |--------------------------------------------------------------------------------------------
E |--------------------------------------------------------------------------------------------
-
e |------------------------------------------------------------------------|
B |--8-10b(12)r(10)---8-----------------------------------------------
G |-----------------------------9------9p7\4----------------------------
D |-------------------------------------------------9p7\5----------------
A |-------------------------------------------------------------7-7p5h7-
E |-------------------------------------------------------------------------

im working on the other solo's in this song too but thought I'd get the first solo out as quick as possible since it's a matter of life and death.
I'm only 16 and have been playing only for a few years but I'm pretty sure everything is right here (except maybe the last lick which was hard to hear + the fact that the guitarist may have been playing this on different strings producing a different tone then you would on the strings i played it on)
#10
2nd solo
e |-----------------------------------------------holdbend-----------------releasebend----
B |--trill--------------------- 8-10-8-10---8--10b(12)--(12)-(12)-(12)-(12)-(10)---8--
G |--7h9p7------------7-9--------------------------------------------------------------------
D |--------------7/9-----------------------------------------------------------------------------
A |-----------------------------------------------------------------------------------------------
E |-----------------------------------------------------------------------------------------------


e |------------------------------------------------------------------------------
B |-------------8-------------------------------------------------------8---------
G |-9----7h9-------9----9p7\4--------------------------------7-9----------
D |-------------------------------------9p7\5------------7/9-----------------
A |-----------------------------------------------7p5--------------------------
E |------------------------------------------------------------------------------

e |---------------------------------------------------|
B |---------------------------------------------------|
G |--9-7-9-------------------------------------------
D |---------------------------------------------------|
A |---------------------------------------------------|
E |---------------------------------------------------|

e|----------------------------------------------------------------
B |--8-10-8--10 10b(12)-(12)-(12)release-(10)--8-----
G |-------------------------------------------------------------9-
D |---------------------------------------------------------------
A |---------------------------------------------------------------
E |---------------------------------------------------------------

e |-----------------------------------------------------------
B |---------8-------------------------------------------------
G |--7/9------9--9p7\4---7/9---------5-7---5h7p5\4--
D |----------------------------------------------------------
A |-----------------------------------------------------------
E |-----------------------------------------------------------

e |---------------------------------------------------|
B |---------8--10b(12)(10)--8-10-/12------------
G |---7/9---------------------------------------------
D |---------------------------------------------------|
A |---------------------------------------------------|
E |---------------------------------------------------|
there you go cemooo the second solo
I forgot to add a key of the symbols in the first tab if you didn't already know them
/=slide up
\=slide down
h=hammer on
p=pull off
trill=rapid hammerons and pull offs
b=bend up
(number)=fret bent up to or released from
Last edited by KM92 at Oct 13, 2008,
#11
3rd solo
e |--------------------------------------------------
B |--trill--------------------- 8-10-8-10-8-10/12
G |--7h9p7------------7-9------------------------
D |--------------7/9--------------------------------
A |--------------------------------------------------
E |--------------------------------------------------

e |---8-10-8--7h8--7h8p7\5--7-5h7p5\3-----
B |---------------------------------------------------
G |---------------------------------------------------
D |---------------------------------------------------
A |---------------------------------------------------
E |---------------------------------------------------

e |-------------------------------------------------------------
B |------10--8h10p8/5-------------------------------------
G |--------------------------7h9p7\4------------------------
D |----------------------------------------7h9p7\5----------
A |-------------------------------------------------------------
E |-------------------------------------------------------------

e |-------------------------------------------------------------
B |------------------8---10--10-b(12)(12)(12)(10)- 8-----
G |---------7--9--------------------------------------------9--
D |---7/9------------------------------------------------------
A |--------------------------------------------------------------
E |-------------------------------------------------------------

e |---------------------------------------------------
B |---------8-----------------------------------------
G |--7h9-----9--7h9p7\4----4\------------------
D |---------------------------------------------------
A |---------------------------------------------------
E |---------------------------------------------------


this is the first time tabbing by ear (there probably is a few minor mistakes) people can improve on my tab if they wish
if you have any questions you can contact me at k-mac92@hotmail.com
Last edited by KM92 at Oct 13, 2008,
#12
Million thanks to you!!!! Million thanks to you!!!

Thank you so very very much!!!
In order to succeed you have to be lucky - Ask any failure!
#13
Question!

Why would you die to get this tab? If you die and get the tab, it's useless to you so there's no point in dying.

*Runs*
Yours sincerely,

bobwentpop, UG's favourite spontaneous combustion victim.
#15
I already told you! Because of a woman.
In order to succeed you have to be lucky - Ask any failure!
#16
Seems kinda weird for a girl to request you to learn a song from an obscure Croatian band. Unless if you're Croatian.
#18
Quote by cemooo
I already told you! Because of a woman.

So a woman said, "Learn the solos to this song or I'll kill you?"
#19
c'mon you guys. you know women.

now if she told me to learn it, i wouldn't learn it! never in my life! you know women are insane so it's always a great idea to do just the opposite of what she asks you.

if you are driving in a car and she asks you to put song no 5 from the CD that is just playing, and you refuse to do ti she will act like she is a little mad at you, but in truth she will be really really happy. always do the opposite - you can never go wrong that way.

she didn't tell me to learn the solo, instead i learned it without ever asking or saying anything about it and I'm gonna play her the solo when she least expects it!

and yes, im from croatia. ;-)
In order to succeed you have to be lucky - Ask any failure!