#1
Ok so im learning accoustic guitar.
I just looked at the lessons on here and i dont understand this thing :

e|------------------------------------------------------|
B|------------------------------------------------------|
G|------------------------------------------------------|
D|------------------------------------------------------|
A|--2-0-----2-0--------0000-2-0-------------------------|
E|------3-------3--3333---------3-----------------------|
3 4 3 4 4444 3 4

I dont get what theyre all about
Please dont laugh if its stupid
im new XD
Lol thanks xxx
#2
e|------------------------------------------------------|
B|------------------------------------------------------|
G|------------------------------------------------------|
D|------------------------------------------------------|
A|--2-0-----2-0--------0000-2-0-------------------------|
E|------3-------3--3333---------3-----------------------|

3 4 3 4 4444 3 4


Ok now the tabs sorted..
whats with the 3 4 3 4 4444 3 4?
Fender Special Edition Custom Telecaster FMT HH in Crimson Red
Reverend Sensei HB FM in Tobacco Burst
Fender Vintage C Neck, HH, Surf Green Nitrocellulose (Handmade)

Egnater Rebel-30 MKI Head
Egnater Tourmaster Series 412B 280W 4x12 Cabinet
#3
dont get what??? the numbers? or the whole thing?
Founder Of The "Jimmy Page Stole All Of My Potential Riffs" Club PM To Join!.

Quote by CoreysMonster
Meh, I usually just buy them off the local shaman, unless I'm in the wilderness, where I rely on raw meat to raise my HP.
#4
each line respresents a string on the guitar and the number is the fret (0 being open string) E is the thickest string
I sat next to a nun on the bus once, she said hi

Twitter: @Pikey_P - wise words right there.
#5
Quote by Aurigo
e|------------------------------------------------------|
B|------------------------------------------------------|
G|------------------------------------------------------|
D|------------------------------------------------------|
A|--2-0-----2-0--------0000-2-0-------------------------|
E|------3-------3--3333---------3-----------------------|

3 4 3 4 4444 3 4


Ok now the tabs sorted..
whats with the 3 4 3 4 4444 3 4?


just ignore it man, probably just a mistake
#6
Many times in tab, numbers like that below the tab represent the fingerpicking fingers to use for the piece. In this case that makes no sense whatsoever. Might be a bogus tab. Try another one for that song. Also in UG, remember, these are tabs made by regular ppl like you and me, and they may not be entirely accurate. Some flat out suck, while others are very close to the original song. Try to choose ones that have the highest rating.
#7
Quote by LeftyDave
Many times in tab, numbers like that below the tab represent the fingerpicking fingers to use for the piece. In this case that makes no sense whatsoever. Might be a bogus tab. Try another one for that song. Also in UG, remember, these are tabs made by regular ppl like you and me, and they may not be entirely accurate. Some flat out suck, while others are very close to the original song. Try to choose ones that have the highest rating.


Dave speaks the truth
I sat next to a nun on the bus once, she said hi

Twitter: @Pikey_P - wise words right there.