#1
Im trying to play Du Hast by Rammstein :

PM- Palm Mute (Where ..... is a continuation thereof)
\- slide
\\- double time slide (twice as fast)


Verse Riff Part 1. x3

e|-----------------------------------------------------|
B|-----------------------------------------------------|
G|-----------------------------------------------------|
D|-7\5--2---2--2-2-2--2-2-7\\5--2---2--2-2-2--2-2-2-2--|
A|-7\5--2---2--2-2-2--2-2-7\\5--2---2--2-2-2--2-2-2-2--|
E|-5\3--0---0--0-0-0--0-0-5\\3--0---0--0-0-0--0-0-0-0--|
PM ................. ......................


I'm having a trouble on the double slide time part ( sliding twice as fast )
Any tips on inproving sliding speed?
Join the 7 String Legion!

RG7420 with Dimarzio Crunchlab + Liquifire set
Peavey Vypyr 75 with Sanpera I
Digidesign Eleven Rack
Sennheiser HD280 headphones
Behringer FCB1010 with EurekaProm

Call me Eddy
#2
just do it as fast as u can,idont know the song so,but it might be easier (it is for me) if u play it like

G|-----------------------------------------------------|
D|-7\5--2---2--2-2-2--2-2--------2---2--2-2-2--2-2-2-2--|
A|-7\5--2---2--2-2-2--2-2-7\\5--2---2--2-2-2--2-2-2-2--|
E|-5\3--0---0--0-0-0--0-0-5\\3--0---0--0-0-0--0-0-0-0--|
Just call me Julius, J, etc.
Taking an Internet break for a while, will come on when I can.
#3
Does having a thinner guitar neck make sliding / playing fast etc easier?
Join the 7 String Legion!

RG7420 with Dimarzio Crunchlab + Liquifire set
Peavey Vypyr 75 with Sanpera I
Digidesign Eleven Rack
Sennheiser HD280 headphones
Behringer FCB1010 with EurekaProm

Call me Eddy
#5
You just gotta keep practicing man. It takes time.
I don't believe in signatures. Ah, sh...
#6
Practice,that's how it goes.


Otherwise,apply lotsa fast fret.
MY GEAR
Ibanez SA160QM
Laney HCM10
Squier Bullet Strat
MXR Carbon Copy
Zoom Tri Metal
Modtone Flanger(mini)
EHX LPB-1
Korg Pitchblack
Timtone acoustic
#7
Practice is just about the only real cure but I think the problem may be your grip on the neck, try not gripping the neck so hard so you have as little friction as possible and always look at where you're sliding to so you don't over/under-shoot the target.
R.I.P. My Signature. Lost to us in the great Signature Massacre of 2014.

Quote by Master Foo
“A man who mistakes secrets for knowledge is like a man who, seeking light, hugs a candle so closely that he smothers it and burns his hand.”


Album.
Legion.