#1
http://www.youtube.com/watch?v=Kz0R-_da158

Anybody know what the **** is going on in that lick? His explanation is pretty vague.
I've figured something out that sounds similar, but not exact (or nearly as awesome).

I've got the 'left hand part' down cold, I just don't know how to incorporate the taps correctly.

Maybe someone else could give it a try?
Quote by TGautier13
Because e-cred on a sub-par 4Chan knockoff forum is what everyone strives to achieve.
We believe - so we're misled
We assume - so we're played
We confide - so we're deceived
We trust - so we're betrayed
#2
O-o
UG Radio


Quote by ddrocksv3_4xpk
Thine Behold one rollin?
Quote by _T_H_R_I_C_E_
Lo, and the other lads be hating,
gallyvanting around,
attempting to catch me cycling in an unsavory fashion.




XBL: Panzyz

PSN: Dasan104
#3

      T        T            T                         
      T  T  T  T  T  T  T T T  T  T  T  T  T  T T     
E||-------------------------------------------------||
B||-------------------------------------------------||
G||*--9p-4h-5h-9p-4h-5p-4---9p-4h-7p-5h-7p-5p-4---*-||
D||*----------------------7---------------------7-*-||
A||-------------------------------------------------||
E||-------------------------------------------------||
 
 
   T          T    T    T                 T       
   T T  T  T  T T  T T  T  T  T  T  T  T  T T     
------------------------------------------------||
------------------------------------------------||
*----4h-5p-4h-9------4h-9p-7p-5h-7p-5p-4h-9---*-||
*--9------------7h-9------------------------7-*-||
------------------------------------------------||
------------------------------------------------||
 
 
   T           T    T    T                T        
   T  T  T  T  T T  T T  T  T  T  T  T  T T  T     
-------------------------------------------------||
-------------------------------------------------||
*--9p-4h-5p-4h-9------4h-9p-7p-5h-7p-5p-4------*-||
*----------------7h-9---------------------9p-7-*-||
-------------------------------------------------||
-------------------------------------------------||
 

The First measure is the magazine tab
The second and third measures are patterns that I came up with by trying to interpret his explanation.
#4
Quote by TheShred201

T T T
T T T T T T T T T T T T T T T T
E||-------------------------------------------------||
B||-------------------------------------------------||
G||*--9p-4h-5h-9p-4h-5p-4---9p-4h-7p-5h-7p-5p-4---*-||
D||*----------------------7---------------------7-*-||
A||-------------------------------------------------||
E||-------------------------------------------------||


T T T T T
T T T T T T T T T T T T T T T T
------------------------------------------------||
------------------------------------------------||
*----4h-5p-4h-9------4h-9p-7p-5h-7p-5p-4h-9---*-||
*--9------------7h-9------------------------7-*-||
------------------------------------------------||
------------------------------------------------||


T T T T T
T T T T T T T T T T T T T T T T
-------------------------------------------------||
-------------------------------------------------||
*--9p-4h-5p-4h-9------4h-9p-7p-5h-7p-5p-4------*-||
*----------------7h-9---------------------9p-7-*-||
-------------------------------------------------||
-------------------------------------------------||


The First measure is the magazine tab
The second and third measures are patterns that I came up with by trying to interpret his explanation.


Damn man, you never cease to amaze me.
R.I.P. My Signature. Lost to us in the great Signature Massacre of 2014.

Quote by Master Foo
“A man who mistakes secrets for knowledge is like a man who, seeking light, hugs a candle so closely that he smothers it and burns his hand.”


Album.
Legion.
#5
The third measure is what I'm doing now (I think)...I'll try those other ones, thanks a bunch.

edit: The magazine tab is definitely wrong, you can see him tapping the B note on the D string.
Quote by TGautier13
Because e-cred on a sub-par 4Chan knockoff forum is what everyone strives to achieve.
We believe - so we're misled
We assume - so we're played
We confide - so we're deceived
We trust - so we're betrayed
Last edited by ramm_ty at Oct 13, 2008,
#7
I wish I had his fingers =(, soo long...

mine are too short and stubby =(
Quote by Echoplex
Mature pit regulars? Are you retarded?


I am a proud Zune 120 owner
#8
Quote by KennethJay
I wish I had his fingers =(, soo long...

mine are too short and stubby =(


You just need to practice, now shut up and get to it.
R.I.P. My Signature. Lost to us in the great Signature Massacre of 2014.

Quote by Master Foo
“A man who mistakes secrets for knowledge is like a man who, seeking light, hugs a candle so closely that he smothers it and burns his hand.”


Album.
Legion.
Last edited by Zaphod_Beeblebr at Oct 13, 2008,
#10
Quote by TheShred201
^Your post needs smileys so it doesn't sound as harsh
Though Kenneth, Zaphy's right, small hands is a poor excuse generally.


All kinds of people, places and things need all kinds of people, places and things but it isn't going to happen now, is it?

I refuse to be kind to anyone who uses small hands as an excuse when guys like Rick Renstrom can play the way they do. (http://www.youtube.com/watch?v=mqgTdVuGrAQ)
R.I.P. My Signature. Lost to us in the great Signature Massacre of 2014.

Quote by Master Foo
“A man who mistakes secrets for knowledge is like a man who, seeking light, hugs a candle so closely that he smothers it and burns his hand.”


Album.
Legion.
Last edited by Zaphod_Beeblebr at Oct 13, 2008,
#11
^ That scared the shit out of me.
Quote by TGautier13
Because e-cred on a sub-par 4Chan knockoff forum is what everyone strives to achieve.
We believe - so we're misled
We assume - so we're played
We confide - so we're deceived
We trust - so we're betrayed
#12
Quote by ramm_ty
^ That scared the shit out of me.


Good good, that's the idea, it's my standard go to for "Must try harder" type encouragement and general inspiration to be better.
R.I.P. My Signature. Lost to us in the great Signature Massacre of 2014.

Quote by Master Foo
“A man who mistakes secrets for knowledge is like a man who, seeking light, hugs a candle so closely that he smothers it and burns his hand.”


Album.
Legion.
#13
     T       T            T       T                 
     T  T  T T  T  T  T T T  T  T T  T  T  T  T T   
E||-----------------------------------------------||
B||-----------------------------------------------||
G||--9p-4h-5-9p-4h-5p-4---9p-4h-7-[B][size="2"]9p[/SIZE][/B]-5h-7p-5p-4---||
D||---------------------7-----------------------7-||
A||-----------------------------------------------||
E||-----------------------------------------------||
Did some work...
I'm fairly sure those are the right notes, and the fingering looks like it matches what Paul is doing in the video...

edit: lol, i just picked up my guitar and it's retarded, nevermind.
edit2: replaced with my newest best guess...i don't understand where the tap on the D string comes in, cause im 90% sure these notes are right. and what do you know, it looks like the magazine tab. except i think they missed a tap (bolded)
Quote by TGautier13
Because e-cred on a sub-par 4Chan knockoff forum is what everyone strives to achieve.
We believe - so we're misled
We assume - so we're played
We confide - so we're deceived
We trust - so we're betrayed
Last edited by ramm_ty at Oct 13, 2008,
#15
Michael Romeo's hands are pretty small. He responded to his shortcoming by becoming one of the best rock guitarists in the world at tapping.
#17
Quote by se012101
Michael Romeo's hands are pretty small. He responded to his shortcoming by becoming one of the best rock guitarists in the world at tapping.


He's got some pretty good stretch licks under his belt too if I remember rightly, there's some quite handy diminished string skipping in his young guitar Guitar Chapter video (exercise 10 if you want to know). Anyway, the Good Lord Lane didn't exactly have huge hands but he makes all kinds of stupid stretches look easy which just shows; it's all about practice.
R.I.P. My Signature. Lost to us in the great Signature Massacre of 2014.

Quote by Master Foo
“A man who mistakes secrets for knowledge is like a man who, seeking light, hugs a candle so closely that he smothers it and burns his hand.”


Album.
Legion.