#1
What would be the equiv of:
e|-----------------------------|
B|-----------------------------|
G|----------------3-------------|
D|-1------3------3------1------|
A|-1------3------1------1------|
D|-1------3-------------1------|

in standard tuning?
#2
you cant do that first or last chord in standard

second would be the same as third but a string lower
#3
i dont think the first power chord can be transcribbed so nothing

Tell me why I had to be a powerslave
I dont wanna die, Im a god, why cant I live on?
When the life giver dies, all around is laid to waste.
And in my last hour,
Im a slave to the power of death


Member Of The Jagermeister Fan Club
#4
you just move the root note up 2 frets so for the first and last chord you can't play them in drop D. the second chord you play as an F5 power chord and the 3rd chord you play normally because it doesn't touch the drop tuned string.
#5
e|-----------------------|
B|-----------------------|
G|-8-----3---8---------|
D|-8- 3--3---8--------|
A|-6--3--1---6---------|
E|-----1----------------|