#2
I am giving this a bump, but would also like to add in that if anyone knows of a tab of it on another site, please post it here.
Beware : I am honest, but not brutal
#3
start of the month bump.
I know no one likes it when a person bumps a post, but until I learn to tab a song myself, thats all I can do.
Which reminds me to ask, how do people tab songs anyway? Do they just have really good hearing and hear the chords?
Beware : I am honest, but not brutal
#5
Here's the intro and the riff...

Drop D tuning


e|---------------------------------------------------------------------------|
B|---------------------------------------------------------------------------|
G|---------------------------------------------------------------------------|
D|---------------------------------------------------------------------------|
A|---12--------10---------13--------8--------13-----10----------------|
D|--------0-0-------0--0-------0-0-----0-0-------0--------0------------|
p.m.........................................................................................

e|---------------------------------------------------------------------------|
B|---------------------------------------------------------------------------|
G|---------------------------------------------------------------------------|
D|---------------------------------------------------------------------------| (2)
A|---12--------10---------13--------8--------10-----13----------------|
D|--------0-0-------0--0-------0-0-----0-0-------0-------0--------------|
p.m.........................................................................................


e|---------------------------------------------------------------------------|
B|---------------------------------------------------------------------------|
G|---------------------------------------------------------------------------|
D|--7--------5---------8--------3--------8-----5--------------------------|
A|--5--------3---------6--------1--------6-----3--------------------------|
E|-----000-----000------000----000-----0------0---------------------|

e|---------------------------------------------------------------------------|
B|---------------------------------------------------------------------------|
G|---------------------------------------------------------------------------| (2)
D|--7--------5---------8--------3--------5-----8--------------------------|
A|--5--------3---------6--------1--------3-----6--------------------------|
E|-----000-----000------000----000-----0------0---------------------|


e|-----------------------------|
B|------------------------------|
G|------------------------------|
D|---0-0----0-------------------|
A|---0-0----0-------------------|
E|---0-0----0--------------------|
p.m....