#1
Anyone know how to do the sweeping or whatever it is that they do in "Awaken" by Dethklok? The main part I want to learn is right after the line "wake up from a thousand years of sleep", but I'd like to learn the other fast stuff in it too.
#2
im pretty sure it isn't sweeping...
and ive seen maybe 12 different tabs for this song on this site.... just look for it
Total Failure

If every dream is a wish, then to dream of zombies is to wish for an appetite without responsibility
#3
Quote by Slovak_Ghost
im pretty sure it isn't sweeping...
and ive seen maybe 12 different tabs for this song on this site.... just look for it

None of them have that part, and I did 911tabs too.

The closest sounding I can get it is:

|-14-10----------------10-|
|---------10---------10----|
|------------11---11-------|
|---------------12----------|
|-----------------------------|
|-----------------------------|

and then repeat it. Although I haven't actually listened to the song to try and figure it out. I'm not good at that, but I supposed I could give it a shot.
#4
Bump.

Also, I need that solo to this tab bad. I'm ****ing dying here. Brutal song.

If anyone knows of any freeware I can use to slow down the song and isolate Skwisgaar's guitar, I would be very grateful and post it here on UG.

You scratch my back, I post a good tab. Thanks.

Stay metal.
Gear:
Gibson SG Standard (tuned to Standard E)
Dean Razorback DB (tuned to Standard C)
Schecter OMEN-7 (tuned to 7-string Standard B)
Line 6 Spider II 212W
Digitech RP80
#5
I was just Thinking about this yesterday, and how me and my brother would want to play it if there was a good tab.
And yes, Slovak Ghost, It is sweeped.

UnearthMetal, Talk to old Rasputin, He has some software I think.

Frottage, Theres a lot of licks in it, But I know the one your talking about. Its the one before RISE! RISE! But it should be played like:
|-14-10------------14--10------------------------|
|---------10------------------10-------------------|
|------------11-------------------11---------------|
|---------------12--------------------12+Wah or Whammy|
|-----------------------------------------------------|
|-----------------------------------------------------

I really want this tab, lol.
Last edited by Life Is Brutal at Dec 14, 2008,