#1
it's about time for halloween and i was wondering if anybody has made up any creppy sounding riffs...

i have this one

|--------------------------------------
|---0-0-0-0--0--0--0--0--0--0-
|--4-4-4-4-----3------3-----3-----
|-2-2-3-2--1------1------1--------
|--------------------------------------
|---------------------------------------


so UG post ur creepy riffs
#2
tuning? tempo? more than 2 seconds?
bro0otal

Drummer



Guitarist___________Bassist________________Vox______________________Lead Guitarist
______________________________________________________
#3
yo i cant tell if those are chords or if its supposed to be finger picked, im sure its scary its just hard to tell how to play it

how bout this

e|=
B|=
G|=
D|=
A|=
E| 2-3-2-3-2-3-2-3-0-3-2-3-2-3-2-3-2-3-0-3-0-3-2-3-2-3-2-3... wrote it myself

If u can figure out the rhythm this one is super creepy

e|-------------------------------1-1-11-x-----------------
B|-------------------------------1-1-11-x-----------------
G|1h3-3-3-33-11--xx-11-2-2-22-x-0--00h1-1-11 rinse and repeat...
D|2-2--2-2-22-22--xx-22-3-3-33-x-2--22-2-2-22
A|2-2--2-2-22-22--xx-22--------------2--22-2-2-22
E|0-0--0-0-00-00--xx-00--------------0--00-0-0-00
Last edited by -=Led_Hed=- at Oct 21, 2008,
#4
Quote by -=Led_Hed=-
yo i cant tell if those are chords or if its supposed to be finger picked, im sure its scary its just hard to tell how to play it



yea i was tabbing it and i kept overwrighting
soo i didn't want to screw it up
#5
Quote by Banana Man
tuning? tempo? more than 2 seconds?

standard,um not sure of the tempo but play it slowly and no not really more that 2 seconds