#1
i have found it in a lot of songs, mostly iron maiden, megadeth (marty friedman era) and steve vai solos. the diagram is below, in the key of A minor.

  fret5 diagram                    tab

  |-x-|---|---|---|                    |-------------5--|
  |-x-|---|---|-x-|                    |---------5-8----|
  |-x-|---|-x-|-x-|                    |---5-7-8--------|
  |---|---|-x-|---|                    |-5--------------|
  |---|---|---|---|                    |----------------|
  |---|---|---|---|                    |----------------|
 

Please note that i don´t know all the notes on the scale/mode, because the licks that i have found, only use the 4 top strings.
GRUPO EN ESPAÑOL

SI BUSCAS BANDA EN LATINOAMERICA O ESPAÑA, ENTRA AQUI
#2
looks like a blues scale in Am.

although youd want to add a note 4th string 7th fret.

ADDING TO SUCH:

its just a pentatonic scale with an added b5. everyone uses it. everyone.
My Gear:
Gibson Faded Flying V
"Dante's Inferno" Iceman
Fender Hot Rod Deluxe 112
etc.




Quote by freedoms_stain
I can't imagine anything worse than shagging to Mark Knopfler.

Maybe shagging Mark Knopfler, but that's about it.
#3
Oh yeah that's the Blues scale I play it alot =_=

E------5------8------l
A------5--6--7------l
D-----5------7-------l
G-----5---7--8------l
B-----5-------8------l
e-----5-------8------l

It should be like that
The world is full of Kings and Queens who blind your eyes and steal your dreams it's Heaven and Hell