#1
could someone tab Korn's cover of Ice Cube's song "Wicked" on 6 string for me?


the only versions I found aren't good
#2
This'll sound smug like I"m an asshole, but I'm not meaning it that way.

Train your ear.

Then you don't have to rely on shitty tabs, becuase most of the time they're wrong anyway.

Here's what I do for playin Korn on a six string. Tune the Low E to A, and straight up like normal except tune the B string (second from thinnest) by the fifth fret instead of the fourth.
Do you feel warm within your cage?

And have you figured out yet -


Life goes by?
Quote by Hydra150
There's a dick on Earth, too
It's you
#3
yeah, thats a good idea and all, but the irony of me being a guitarist is that I'm tone deaf

thanks anyway
#4
Most of us start out that way man. Takes a long time.

As far as tabbin it out, I don't really know. I do'nt have the right gauge strings to go to True A, so I can't help you right now.
Do you feel warm within your cage?

And have you figured out yet -


Life goes by?
Quote by Hydra150
There's a dick on Earth, too
It's you
#6
THIS IS ALL FOR STANDART TUNED 6 STRING GUITAR (you won't have the low D-C#-C-B in the chorus... but thats not toooooo important


And yes.. train your ear... i actually listened 30 sec of that song... and figuerd everything out in under a minute. and i don't have a good ear. so, it's not hard to train it!!!!!! but it's very helpful. anyway.. here is what you can play it like:

VERSE

choose this or this
E||--17b--------17b--15--14----|| |--17s-18----L---17b--15--14----||
B||--------------------------- ------|| |--------------------------------------||
G||----------------------------------|| |--------------------------------------||
D||----------------------------------|| |--------------------------------------||
A||----------------------------------|| |---------------------------------------||
E||----------------------------------|| |--------------------------------------||

CHORUS

choose this or this (listen to the song for the rhythm)
E||-------------------------- |--------------------------||
B||-------------------------- |--------------------------||
G||-------------------------- |--------------------------||
D||-------------------------- |--7----6--5--4--3------||
A||--5----4--3--2--3------ |--5----4--3--2--3------||
E||--5----4--3--2--1------ |--5----4--3--2--1------||


That cromatic bridge thingy:

E||-----------------------------------------|-----------------------------------||
B||--15--15--15---14---14--14---13-|--L--13--13---12---12--11----||
G||--18--18--18---17---17--17---16-|--L--16--16---15---15--14----||
D||----------------------------------------|------------------------------------||
A||----------------------------------------|------------------------------------||
E||----------------------------------------|------------------------------------||

End:

1x
E||-----------------------------------------|-----------------------------------||
B||--15--15--15---14---14--14---13-|--L--13--13---12---12--11----||
G||--18--18--18---17---17--17---16-|--L--16--16---15---15--14----||
D||----------------------------------------|------------------------------------||
A||----------------------------------------|------------------------------------||
E||----------------------------------------|------------------------------------||


few times this
E||----------------------------------------|------------------------------------||
B||--14--14--14---13---13--13---12-|---L--12--12---11---11--10----||
G||--17--17--17---16---16--16---15-|---L--15--15---14---14--13----||
D||----------------------------------------|------------------------------------||
A||----------------------------------------|------------------------------------||
E||----------------------------------------|------------------------------------||

then go half steps down:

something like this in freetime...
E||------------------------|-----------------------|---------------------|
B||---9---------8---------|---7---------6--------|--5--------4--------|
G||--12--------11--------|--10--------9--------|--8--------7--------|
D||-------------------------|----------------------|---------------------|
A||-------------------------|----------------------|----------------------|
E||-------------------------|----------------------|----------------------|



---------------------|----------------------||
--3--------2--------|--1--------0--------||
--6--------5--------|--4--------3--------||
---------------------|----------------------||
---------------------|---------------------||
---------------------|---------------------||


b is bend.. s is slide (for the intro)


Edit: wow.. that tabs looks horrible^^ lol...
Last edited by Maxico at Oct 23, 2008,