#1
-------------------------------------------------------------------------------------------------
-------------------------------------------------------------------------------------------------
-------------------------------------------------------------------------------------------------
-------------9-----------9--------------7-----------7--------------11----------------11-----
---------9-----9-----9----9-------7------7-----7----7------11--------11-----11------11-
-----7------------7-------------5------------5------------9-------------------9--------------


try it with max reverb , its probs def in a song ... :P
#2
Tuning?
Quote by neopowell
Killing yourself seems like the only simple solution.
#3
uh.. phantom of the opera- Iron Maiden, perhaps?
XBL GamerTag = IAmSentient6

My gear:
Ibanez Artist
ESP ltd Viper 200
Schecter Diamond 8

Amps:
Marhshall MG30 (for sale)
Line 6 Spider III Half Stack (mine forever)
Interested in Melodic Thrash Metal? ALUSTRIUM AND LAST NAIL DRIVEN!
#5
Maybe the verse to Smoke on the Water by Deep Purple?
e|--------------------------------------------------|
b|--------------------------------------------------|
G|--------------------------------------------------|
D|-----5-----5-----5-----5-----5-----3-----5-5------|
A|---5-----5-----5-----5-----5-----3-----5-----5----|
E|-3-----3-----3-----3-----3-----1-----3---------3--|


It's just arpeggiating extended power chords, anyway.
Quote by HorizonShadow
Just eat the headstock.

That'll make you look mad.
#9
it's not a very original riff so it can be like 10000 songs :P
Quote by Carmel
You are a redeeming feature for the UG Swedish population.


All-riiight.
#11
sounds similar to The Day That Never Comes...

maybe ur thinkin of that? It's played in a dif. place and dif. notes, but similar
This ends now, eat the goddamn beans!