#1
I need some help with this song. Pretty much no tabs are available for it so I've tried to figure it out by ear. Its called "fox on the run" by sweet, a 70s group. Whether or not you like the song is irrelevant, I just need a little help. What are the three chords played in the beginning at the 8 second mark? It sounds terribly easy but I can't get it to sound right. Now for the verses, and i know this tab is gonna get screwed up but hopefully you can get the idea:

verse:

e---------------------5----------------------
b---------------------5----------9-------------
g---------------------6----------9--------------
d---------------------7----------9---------------
a---9--11--9-------7-----------7------9----11---9----
e---7--7---7--------5------------------7----7-----7-- etc

chorus:

e--------------7---------5------5-------7----------
b-----9-------7---------5------5-------7---------9---
g-----9-------8---------6------6-------8---------9---
d-----9-------9---------7------7-------9---------9----
a-----7-------9---------7------7-------9---------7-----
e-------------7---------5------5-------7--------------- etc


This is not complete at all and is just a rough idea of what I've come up with. Hopefully you guys can understand what I'm talking about. Thanks for the help.

here's the song: fox on the run
Last edited by rockadoodle at Oct 25, 2008,
#3
You're right, there are tabs, but they are rated low and they just don't sound quite right imho.