#1
I've been looking for a while, and I can't find the Bass tabs for Life After Death by Sixx AM. I would totally give my left boob for that damn song to be tabbed out! I love the intro so much!

Any takers?
#4
G|--------------------------5---------------------------------------------------------|
D|------7--8-7---5-7-8------8--7--5--7-----7-8--7---5--7-8--7-5-------------|
A|---5---------------------------------------5-----------------------------8--7--8--|
E|-------------------------------------------------------------------------------------|

G|--------------------------5---------------------------------------------------------|
D|------7--8-7---5-7-8------8--7--5--7-----7-8--7---5--7-8--7-5-------------|
A|---4---------------------------------------5-----------------------------8--7--8--|
E|-------------------------------------------------------------------------------------|

G|--------------------------5---------------------------------------------------------|
D|------7--8-7---5-7-8------8--7--5--7-----7-8--7---5--7-8--7-5-------------|
A|---5---------------------------------------5-----------------------------8--7--8--|
E|-------------------------------------------------------------------------------------|

G|--------------------------4---------------------------------------------------------|
D|------6--7-6---4-6-7------7--6--4--6-----6-7--6---4--6-7--6-4-------------|
A|---4---------------------------------------4-----------------------------7--6--7--|
E|-------------------------------------------------------------------------------------|

G|---------------------------------------------------------------------------|
D|------------------------------5555---77---55--------------------------|
A|--5555---7777---8888------------------------88--77--5------------|
E|---------------------------------------------------------------------------|

G|----------------------------------------------------------------------------------------------|
D|-------------------------------------------------5555---77---55--------------------------|
A|---------------------5555---7777---8888------------------------88--77--5-----------|
E|---------------------------------------------------------------------------------------------|


G|---------------------------------------------------------------------------|
D|-------------------------------------------5----------------------------------|
A|--5---8--5--0---5---8--5--0--5---8-----7-8---5--4--0------------------| (2)
E|-------------------------------------------------------------------------|


G|----------------------------------------------------------------------------------------------|
D|---------7-8-----------8-7----------7--8----------8-7----------7--8----------8-7-------|
A|-----5----------5--4----------4-5-----------5-4----------4--5----------5-4--------------|
E|----------------------------------------------------------------------------------------------|

G|-----------------------------------------------------------------------------------------------------|
D|----------5--7----------7--5----------3--5----------5--7---------7-8------77---55------------|
A|----4-3----------3-2-----------2--1----------1--3---------3--5---------5-------------88---77-|
E|------------------------------------------------------------------------------------------------------|


G|---------------------------------------------------------------------------|
D|------------------------------------------5----5-----5--7-5-------------|
A|--5--8--5--8---5--8--88--7--5---7-----7-----7-----------8-7-------| (2)
E|---------------------------------------------------------------------------|

G|---------------------------------------------------------------------------|
D|------------------------------5555---77---55--------------------------|
A|--5555---7777---8888------------------------88--77--5------------|
E|---------------------------------------------------------------------------|


G|--------------------------5----------------------------------------5----------------|
D|------7--8-7---5-7-8------8--7--5--7-----7-8--7---5--7-8-----8--7-5---7--|
A|---5---------------------------------------4----------------------------------------|(5)
E|-------------------------------------------------------------------------------------|

G|--------------------------5---------------------------------------------------------|
D|------7--8-7---5-7-8------8--7--5--7-----7-8--7---5--7-8--7-5-------------|
A|---5---------------------------------------4-----------------------------8--7--8--|
E|-------------------------------------------------------------------------------------|


Repeat this 2 sections 3 times
G|--------------------------5---------------------------------------------------------|
D|------7--8-7---5-7-8------8--7--5--7-----7-8--7---5--7-8--7-5-------------|
A|---5---------------------------------------5-----------------------------8--7--8--|
E|-------------------------------------------------------------------------------------|

G|--------------------------5---------------------------------------------------------|
D|------7--8-7---5-7-8------8--7--5--7-----7-8--7---5--7-8--7-5-------------|(3)
A|---4---------------------------------------5-----------------------------8--7--8--|
E|-------------------------------------------------------------------------------------|


G|---------------------------------------------------------------------------|
D|------------------------------5555---77---55--------------------------|
A|--5555---7777---8888------------------------88--77--5------------|
E|---------------------------------------------------------------------------|
Last edited by crmrz at Feb 9, 2009,