#1
Hi lads

Didn't know where to put this so...

I've wanted to learn Roulette by System Of A Down but couldn't be bothered to tune my guitar down (drop D) just for playing that song, so I tabbed it for the EADGBE tuning.

E:-------------------------------|-------------------------------|
A:----4------4---/--8--------3---|-----6------6------5--------7--|
D:-------------------------------|-------------------------------|
G:-------------------------------|-------------------------------|
H:-3----3--3---3-/6-------1----1-|/-4----4--4--------------------|
E:----------------------3--------|--------------3-5----5-/-7-----|

E:-------------------------------|-------------------------------|
H:----4------4-------------------|----3------3-------------------|
G:------------------4------4-----|-------------------5-------7---|
D:-------------------------------|-------------------------------|
A:-3----3--3---3-----------------|-1----1--1---------------------|
E:---------------3-----3-3--3----|--------------3-5----5-/-7-----|

E:-8---8-10-11---10-11-14----10-11-14-11--10/8--10--11--10--8-|
H:----------------------------------------------------------------|
G:----------------------------------------------------------------|
D:----------------------------------------------------------------|
A:----------------------------------------------------------------|
E:----------------------------------------------------------------|

E:-8-------------------------------------------------------------3/4/3--3------------|
H:------8--8----8-9-11-9--8/6--8--9--8--6--6---------------------3/4/3--3--4--4--6--6|
G:-------------------------------------------------------------------------6--6--3--3|
D:------------------------------------------------------8--8-------------------------|
A:-----------------------------------------------------------------------------------|
E:-----------------------------------------------------------------------------------|


E:-8---8-10-12---10-12-13----10-12-13-12--10/8--10--12--10--8-|
H:----------------------------------------------------------------|
G:----------------------------------------------------------------|
D:----------------------------------------------------------------|
A:----------------------------------------------------------------|
E:----------------------------------------------------------------|

E:-8-------------------------------------------------------------5/6/5--5--3--3--1--1|
H:------8--8----8-9-12-9--8/6--8--9--8--6--6---------------------5/6/5--5--3--3--1--1|
G:-----------------------------------------------------------------------------------|
D:------------------------------------------------------9--9-------------------------|
A:-----------------------------------------------------------------------------------|
E:-----------------------------------------------------------------------------------|


Perhaps some of you want to use it?
Last edited by Markitt at Oct 26, 2008,
#2
Quote by Markitt
I've wanted to learn Roulette by System Of A Down but couldn't be bothered to tune my guitar down (drop D) just for playing that song, so I tabbed it for the EADGHE tuning.

so instead of tuning your D string down, you tuned your b string to an h? that is dedication.
Gear:
Fender Hot Rod Deville 2x12
Custom Built Guitar (made it myself)
PRS SE Soapbar II Maple
Fender Stratacoustic (Stolen! )
Digitech RP200
Boss MT-2
Roland Microcube
I like my stuff!
#3
I was fairly certain the song was originally in Drop C, or Drop D down a whole step.

And how does one tune to EADGHE? I'm not familiar with that particular note...