#1
hello

i have 2 question about reading tabs


1st what this mean

for example like in sweet home Alabama

|-------------------------------|-------------------------------|
|--------3---------------3------|-------------------------------|
|----------2---------------0----|--------0--0----------------2/0|
|--0--0------0---------------0--|-------------------0-2/0-------|
|--------------3(0)3------------|--------------0/2--------2-----|
|-------------------------------|-3(0)3-------------------------|

2nd q

what this means

7b9


thnx in advance
#2
7b9 means you bend that string on the 7th fret upwards until you reach the pitch that is the 9th fret. before you start, hit the 9th fret to see how it sounds. then bend up from 7 to reach that. it's confusing at first but becomes second nature eventually
#3
the (0) means a not u can either play (it sounds cool,better) or a muted not were u hit the string with ur fret hand lightly,so it doesnt make a not,just a "muffled" sound
Just call me Julius, J, etc.
Taking an Internet break for a while, will come on when I can.
#5
jsut so you know, sweet home albama goes

|---------------------------------|---------------------------------|
|--------3----------------3------|---------------------------------|
|----------2----------------0----|-----0--0-------------------2p0|
|--0--0------0---------------0--|-------------------0-2p0-------|
|--------------3-3------------|--------------0h2------------2-----|
|-------------------------------|--3----3----------------------------|

and h means u strike the first not and hammer on the next without strumming
Just call me Julius, J, etc.
Taking an Internet break for a while, will come on when I can.