#1
If this is meant to go somwhere else, please re-direct me.

This is from the song "Schism - Tool" and i need help playing it (e.g what fingers to use, or a pick, etc.)

4:31
(emphasize every second note)
g|---------------------------------------------------------12------|
d|*---7--------------------------7-7-7--7-7-7---/10-----10-----10--|
a|*--0-0-0--0-0-0--0-0-0--0-0-0--0-0-0--0-0-0----------------------|
d|-----------------------------------------------------------------|

g--------5------5------5-----5-------5---------7----7---7---7-----|
d----------------------------------------------------------------*|
a---3--3----3----3---3----3----3---3----3----5---5----5---5---5--*| (x2)
d--3-3-3--3-3-3--3-3-3--3-3-3--3-3-3--3-3-3/-5-5-5--5-5-5---------|


And from another tab... (dunno which one to use)

4:31 - this one and the one below go together.
G|----9--------------------------------12------5-------5---5---5--|
D|:---------------------------/10--10-----10----------------------|
A|:-0--0--0-0--0-0--0-0--0-0--------------------------------------|
D|-------------------------------------------3----3--3-3-3-3-3-3--|
		   x2
G|---5/7---7-7-7----|---|
D|-----------------:|---|
A|-----5-5-5-5---5-:|-0-|
D|-3-3/5-5-5--------|---|


Yeah, i am kinda still a beginner, i'm just having trouble getting those 5's / 7's on the G string.

Thanks.
R/DedIT
The Glitch Mob

Arkasia

Tool

Quote by madbasslover
I'd pay four bucks to have those 6 balls stuffed in my mouth.
#2
Yeh G string slides are a pain, I just try sliding with amp turned off and try as fast as you can it helps me alot could help you
CANNIBAL CORPSE

When the silence is gone, what have we become?
#3
i'm just having trouble getting those 5's / 7's on the G string.

Sorry, what i said must have been misleading, and was just referring to the 5's and 7's, not necessarily the slide.

I'll figure it out in time.. =\
R/DedIT
The Glitch Mob

Arkasia

Tool

Quote by madbasslover
I'd pay four bucks to have those 6 balls stuffed in my mouth.
#4
you could use your thumb and and another finger to reach them i.e use your thumb to play the e string and then use what ever finger feels comfortable to play the g.
Yamaha TRB1006
Fender MIA jazz bass
Hora Hybrid double bass
Hartke lh 500
Ev 606L
Epiphone les paul
#5
g--------5------5------5-----5-------5---------7----7---7---7-----|
d----------------------------------------------------------------*|
a---3--3----3----3---3----3----3---3----3----5---5----5---5---5--*| (x2)
d--3-3-3--3-3-3--3-3-3--3-3-3--3-3-3--3-3-3/-5-5-5--5-5-5---------|


those 3's on the A and D then 5 then just 3 on the D then 3 on A and D gets oh so confusing.. >_<
R/DedIT
The Glitch Mob

Arkasia

Tool

Quote by madbasslover
I'd pay four bucks to have those 6 balls stuffed in my mouth.
#6
well just play evreything really slowly and wait tell you can get it.
Yamaha TRB1006
Fender MIA jazz bass
Hora Hybrid double bass
Hartke lh 500
Ev 606L
Epiphone les paul
#7
I'll see how i go, thanks anyway.
R/DedIT
The Glitch Mob

Arkasia

Tool

Quote by madbasslover
I'd pay four bucks to have those 6 balls stuffed in my mouth.
#8
whenever you want tabs for a tool song, go to tooltabs.net and click on the little green button. they have good, accurate tabs for all the songs
#9
Thanks deep. I didn't even think to look there

4:31
(emphasize every second note)
g|---------------------------------------------------------12------
d|*---7--------------------------7-7-7--7-7-7---/10-----10-----10--
a|*--0-0-0--0-0-0--0-0-0--0-0-0--0-0-0--0-0-0----------------------
d|-----------------------------------------------------------------
 
g------5------5------5-----5-----5----7----7---7---7-----|
d------3------3------3-----3-----3----5----5---5---5----*|
a---0-------0-----0------0-----0----0-----0---0---0-----*| x2
d--------------------------------------------------------|
 


much easier =]
R/DedIT
The Glitch Mob

Arkasia

Tool

Quote by madbasslover
I'd pay four bucks to have those 6 balls stuffed in my mouth.
#11
Thanks =]

I've pretty much got it sorted now.
R/DedIT
The Glitch Mob

Arkasia

Tool

Quote by madbasslover
I'd pay four bucks to have those 6 balls stuffed in my mouth.