#2
It was declined, probably because its either wrong, or because there are many tabs similar to yours
#4
Quote by JDbbx
(Don't worry, I did check and my tab hasn't been posted before)

Just out of interest, where did you check. By my count there are

14 guitar tabs
8 guitar pro tabs
5 power tabs
1 chord tab
9 bass tabs.

A total of 32 tabs for the song.

in terms of contribution

D=denied
P= pending(i think, it could be W for waiting)
A= accepted
#5
Quote by jimmy_neutron

D=denied
P= pending(i think, it could be W for waiting)
A= accepted


Much thanks for that, will remember!

I couldn't find any other tabs like mine, but I only looked in normal tabs since I don't have Power Tab or Guitar Pro.

Anyway, thanks for the answers, guys, much appreciated!

Jon
#6
If your tab for Seven Nation Army isn't on here already then it's wrong.
Populus vult decipi. Decipiatur.

Quote by Mistress_Ibanez
It's can be a contraction and genitive case.

Quote by Mistress_Ibanez
If you cut down on these costs students won't learn so well, effecting the "quality"...
#7
Quote by FrenchyFungus
If your tab for Seven Nation Army isn't on here already then it's wrong.


It's just a no-sliding version of the standard 7-7-10-7-5-3-2 except it uses two strings, the 7 on A being the same as 2 on D, it's the same note.

EDIT: In fact,
e--------------------------------------
B--------------------------------------
G--------------------------------------
D----2---2---5---2---------------------
A--------------------5---3---2---------
E--------------------------------------

e--------------------------------------
B--------------------------------------
G--------------------------------------
D----2---2---5---2---------------------
A--------------------5---3---5---3---2-
E--------------------------------------

e--------------------------------------
B--------------------------------------
G--------------------------------------
D--2-2-2-2-2-2-2-2-4-4-4-4-4-4-4-4-----
A--------------------------------------
E--------------------------------------


Etc.
Last edited by JDbbx at Oct 31, 2008,