#1
Hi. i was wondering if someone could tab this solo to this song. there's no tab at all on the internet. Warning: it's extremely hard and there's this certain riff in the solo that sounds so amazing. i was wondering if someone could please tab it for me. please!

The part i want tabbed in the video below, starts at 2:13 in the song. Please consider helping me

http://www.youtube.com/watch?v=kugCBxVbpHw

thank you so much. if you do tab it. could you please let me know and send a link to the tab. thanks!
Last edited by logspran at Oct 31, 2008,
#2
It's just an arpeggio man.
E-married to ilikepirates

Quote by bloodtrocuted93

How are you so fucking awesome at music?


>¦<
¦
#3
That's the hardest you ever seen? o_o...
Quote by Echoplex
Mature pit regulars? Are you retarded?


I am a proud Zune 120 owner
#6
Quote by s-g man
hahahahahahaaha "hardest solo" lol


ok. i know it's not the hardest ever. but it's not easy. i'm good at playing guitar, just not figuring tabs out. so could someone please tab it for me.
#7
-------------------------------14--------------------------------------------14-19-14----------
---------------------------15-----15-------------------------------------15-----------15--------17
-----------------------16------------16-------------------------------16-----------------16-----
------------14-16-17--------------------14------------------14-16-17-----------------------17--
-14-16-17-----------------------------------17-16-14-16-17--------------------------------
------------------------------------------------------------------

something like that. feel free to correct the tab anyone
#9
^^^^^ look ^^^^^^^. it aint perfect but u can play around with that and it will do

edit: the last E on the b string is bent up a tone
#10
Quote by s-g man
-------------------------------14--------------------------------------------14-19-14----------
---------------------------15-----15-------------------------------------15-----------15--------17
-----------------------16------------16-------------------------------16-----------------16-----
------------14-16-17--------------------14------------------14-16-17-----------------------17--
-14-16-17-----------------------------------17-16-14-16-17--------------------------------
------------------------------------------------------------------

something like that. feel free to correct the tab anyone


Thank you so much, man.
#12
Quote by s-g man
wait the last note is a c (14th fret) not an e.


thanks for ur help. when i'm playing it it sounds somewhat like it, but i think that's just because i'm playing it slow. when i get it up to speed it'll sound better i think. thanks!
#13
------------------------------14------------------------------------------14-19-14----------
---------------------------15-----15-----------------------------------15----------15--------14
-----------------------16------------16-----------------------------16----------------16---16-
------------14-16-17--------------------16-------------------14-16----------------------17--
-14-16-17-----------------------------------17-16-14-16-17--------------------------------
------------------------------------------------------------------
yeh, just had another look. i think this is closer to it