#1
Hey guys, just wondering if any of you have a tab of the new version of the song. My friends and I want to do a cover of it.

thanks if u help, if u dont, F**K u
I don't know what to put in my sig...


How about my gear: -
o Epiphone Les Paul 100
o VOX DA5



how bout a quote?



Originally Posted by *someone*
*something funny or reffering to me*



#2

Tuning: Standard

Riff 1 (Clean)
e|----------------------------------|
B|----------------------------------|
G|-----2-----2----------2-----2-----|
D|----------------------------------|
A|---4-----4-----4----4-----4-----4-|
E|-2-----2-----2----0-----0-----0---|
   "Don't remember..."
e|----------------------------------|
B|----------------------------------|
G|-----2-----2----------2-------2---|
D|---4-----4---4------0-------2-----|
A|-2-----2------------------0-------|
E|----------------2h3-----3-------3-|
  "...realized life was a game..."


Riff 2 (Distortion)
e|----------------------------------|
B|----------------------------------|
G|----------2------2h4----2-4-------|
D|-4----2-4-2----2-2h4----2-4-2--4--|
A|-4----2-4------2------------2--4--|
E|----------------------------------|
        * *      *        *   *
   "So as you read.."
e|------------------------------|
B|------------------------------|
G|------------2------4----2-4-2-|
D|-2-4----2-4-2----2-4----2-4-2-|
A|-2-4----2-4------2------------|
E|------------------------------|
   *      * *      *      *
   "Please smile when you..."
e|----------------------------------|
B|----------------------------------|
G|-/7-7-7-7-7-7-7-7-7-7-7-7-7-7-7---|
D|-/7-7-7-7-7-7-7-7-7-7-7-7-7-7-7---|
A|----------------------------------|
E|--------------------------------0-|
   "..all..."                     *


Riff 3
Guitar 1 (Distortion)
e|---------------------|
B|---------------------|
G|---------------------|
D|-----------4----2----|
A|-4----2----2----0-4--|
E|-2----0-----------2--|
  "A tout le monde, a tout mes amis..."
e|-------------------------|
B|-------------------------|
G|-------------------------|
D|-2----6----(6)\-4------7-|
A|-0----4----(4)\-2----0-5-|
E|-----------------------5-|
  "These are the..., I'll ever speak..."


Guitar 2 (Clean)
e|------9------9-------7-----7-|
B|---10---10---------9---9-----|
G|-9---------9-----9-------9---|
D|-----------------------------|
A|-----------------------------|
E|-----------------------------|
  "A tout le monde, a tout mes amis..."

e|-----7-----7-------5-----5-|
B|---7---7---------7---7-----|
G|-8-------8-----6-------6---|
D|---------------------------|
A|---------------------------|
E|---------------------------|
  "Je vous aime, je dois partir..."

e|-----5-----5-------4-----4-|
B|---5---5---------5---5-----|
G|-6-------6-----6-------6---|
D|---------------------------|
A|---------------------------|
E|---------------------------|
  "These are the..., I'll ever speak..."

e|-----2-----2--0----|
B|---2---2------3----|
G|-4-------4----2----|
D|--------------0----|
A|-------------------|
E|-------------------|
  "...and they'll set me free..."


Riff 1a
Guitar 1 (Clean)
e|------------------------------------|
B|------------------------------------|
G|-----2-----2-----------2------2-----|
D|------------------------------------|
A|---4-----4-----4----4------4------4-|
E|-2-----2-----2----0------0------0---|
   "If my heart..."
e|--------------------------------------|
B|--------------------------------------|
G|------2------2----------2--------2----|
D|----4------4---4------0--------2------|
A|--2------2-------------------0--------|
E|------------------2h3------3-------3--|
  "I know it would surely break..."

Guitar 2 (Distortion)
e|----------------------------------|
B|----------------------------------|
G|-----2-----2----------2-----2-----|
D|----------------------------------|
A|---4-----4-----4----4-----4-----4-|
E|-2-----2-----2----0-----0-----0---|
   * *   * *   *    * *   * *   *  
e|----------------------------------|
B|----------------------------------|
G|-----2-----2----------2-------2---|
D|---4-----4---4------0-------2-----|
A|-2-----2------------------0-------|
E|----------------2-3-----3-------3-|
   * *   * *   *  * * *   * * *   *   

Guitar 3 (Distortion)
e|---------------------------------|
B|---------------------------------|
G|---------------------------------|
D|---------------------------------|
A|---------------------------------|
E|-2-2-2-2-2-2-2-2-0-0-0-0-0-0-0-0-|
   * * * * * * * * * * * * * * * * 
e|-----------------------------------|
B|-----------------------------------|
G|-----------------------------------|
D|-----------------------------------|
A|-2-2-2-2-2-2-2-4-5-----5-7-----5-4-|
E|---------------2-3-3-3-3-5-5-5-3-2-|
   * * * * * * * * * * * * * * * * * 
e|-------------------------------|
B|-------------------------------|
G|-------------------------------|
D|-------------------------------|
A|-------------------------------|
E|-2-2-2-2-2-2-2-0-0-0-0-0-0-0-0-|
   * * * * * * * * * * * * * * * 
e|---------------------------------|
B|---------------------------------|
G|---------------------------------|
D|---------------------------------|
A|-2-2-2-2-2-2-2-4-5-----5-7-----5-|
E|---------------2-3-3-3-3-5-5-5-3-|
   * * * * * * * * * * * * * * * * 


Play Riff 2  "Moving on..."
Play Riff 3  "A tout le monde..."


Riff 4 (Solo Rhythm)
e|------------------------------------|
B|------------------------------------|
G|------------------------------------|
D|-------------4----------------------|
A|-4-----2-----2-----4-5--x--5-7--x-5-|
E|-2-----0-----------2-3--x--3-5--x-3-|

e|------------------------------------|
B|------------------------------------|
G|------------------------------------|
D|-------------4----------------------|
A|-4-----2-----2-----4-5--x--5-7--x-7-|
E|-2-----0-----------2-3--x--3-5--x-5-|

Final time:
e|------------------------------------|
B|------------------------------------|
G|------------------------------------|
D|-------------4--------------------5-|
A|-4-----2-----2-----4-5--x--5-7--x-5-|
E|-2-----0-----------2-3--x--3-5--x---|

#3

Solo (Drover)
e|------------17----16~----17----17b19~---16b17r16b17--(17)r16----16-|
B|-14d12r14*-----14-----------14-------------------------------17----|
G|-------------------------------------------------------------------|
D|-------------------------------------------------------------------|
A|-------------------------------------------------------------------|
E|-------------------------------------------------------------------|

e|----------------------------|
B|-17\15--/19--\14-14~~-------|
G|-----------------------(6)/-|
D|----------------------------|
A|----------------------------|
E|----------------------------|

e|--------------------------------------|
B|----17-------15-------14------12------|
G|-14----14\13----13\11----11\9----9-7~-|
D|--------------------------------------|
A|--------------------------------------|
E|--------------------------------------|

e|----------------------------|
B|-7h10---7-------------------|
G|------9---9/11--------------|
D|---------------9/11~----9\7-|
A|----------------------------|
E|----------------------------|

e|--------------------------------------------|
B|--------------------------------------------|
G|-------------------------------------4/6-4~-|
D|-9/11--------------------------4--4---------|
A|------9--7/9~----7-7--4--5-5-5--------------|
E|--------------------------------------------|

e|----------------------------------|
B|----------------------------------|
G|-2-4-5p4p2-4~---2-4-5p4p2---4-2~--|
D|-----------a--------------4-------|
A|----------------------------------|
E|----------------------------------|
   * *            * *
e|--------------------------|
B|-/10--10----10~-10~----xx-|
G|-/11-----11-11~-11~----xx-|
D|--------------------------|
A|--------------------------|
E|--------------------------|

e|--------------{12}---------------------------|
B|-10b12r10b12-------(12)r10-9~--(9)h10p9------|
G|----------------------------------------11-9-|
D|---------------------------------------------|
A|---------------------------------------------|
E|---------------------------------------------|
                                           * *
e|-------------------|
B|-----------7/9-7~--|
G|-7~--------7/9-7~--|
D|-------9-7---------|
A|-------------------|
E|-------------------|
         * *
Main guitar:
e|-------------------------------------------------------12-14-16-19~-|
B|-------------------------------------12-14-16-12-14-16--------------|
G|-------------------11-13-14-11-13-14--------------------------------|
D|-13h14p13-11-13-14--------------------------------------------------|
A|--------------------------------------------------------------------|
E|--------------------------------------------------------------------|

Harmony guitar:
e|----------------------------------------------------------------16~-|
B|-------------------------------------------------------14-16-17-----|
G|-------------------------------------13-14-16-13-14-16--------------|
D|-[silent]-------------------13-14-16--------------------------------|
A|--------------------------------------------------------------------|
E|--------------------------------------------------------------------|


End solo


Riff 5
e|---------------------------------|
B|---------------------------------|
G|----------4------4h6----4-6------|
D|-6----4-6-4----4-4h6----4-6-4--6-|
A|-6----4-6------4------------4--6-|
E|---------------------------------|
        * *      *        *   *
   "So as you read.."
e|--------------------------------|
B|--------------------------------|
G|------------4------4h6----4-6-4-|
D|-4-6----4-6-4----4-4h6----4-6-4-|
A|-4-6----4-6------4--------------|
E|--------------------------------|
   *      * *      *        *
   "Please smile..."
e|----------------------------------|
B|----------------------------------|
G|-/9-9-9-9-9-9-9-9-9-9-9-9-9-9-9---|
D|-/9-9-9-9-9-9-9-9-9-9-9-9-9-9-9---|
A|----------------------------------|
E|--------------------------------0-|
   "...all..."                    *


Play Riff 3   "A tout le monde..."


Riff 4a (Solo Rhythm)
e|------------------------------------|
B|------------------------------------|
G|------------------------------------|
D|-------------4----------------------|
A|-4-----2-----2-----4-5--x--5-7--x-5-|
E|-2-----0-----------2-3--x--3-5--x-3-|

e|--------------------|
B|--------------------|
G|--------------------|
D|-------------4------|
A|-4-----2-----2----4-|
E|-2-----0----------2-|


Solo
Guitar 1
e|----------------------------------------------------|
B|----------------------------------------------------|
G|-14-13--14-11-14-13--14-11~------14-13--11----------|
D|-------------------------------14-----------14~--11-|
A|-----------------------------14---------------------|
E|----------------------------------------------------|

e|----------------------------------------------------|      
B|---------------------------------12-15--14--12~--10-|
G|-16-14--16-11-16-14--16-11~----12-------------------|
D|-----------------------------12---------------------|
A|----------------------------------------------------|
E|----------------------------------------------------|

e|----------------------------------------------------|
B|----------------------------------------------------|
G|-14-13--14-11-14-13--14-11~------14-13--11----------|
D|-------------------------------14-----------14~--11-|
A|-----------------------------14---------------------|
E|----------------------------------------------------|

e|----------------------------|      
B|----------------------------|
G|-16-14--16-11-16-14--16-11~-|
D|----------------------------|
A|----------------------------|
E|----------------------------|    
                                              
e|--------------------------------|
B|--------------------------------|
G|-7-6~---------------------------|
D|------7-6~----------------------|
A|-----------7-5~---------------4-|
E|----------------7-5~--4-5-7\--2-|
                        * *
Guitar 2
e|--------------------------------------------------------|
B|-14-12--14-10-14-12--14-10~----------14-12--------------|
G|----------------------------------13--------14--13~-----|
D|-------------------------------14--------------------14-|
A|--------------------------------------------------------|
E|--------------------------------------------------------|

e|-------------------------14~-------------------------|
B|-15-14--15-12-15-14--15------------------------------|
G|----------------------------------12-16--14--12---11-|
D|--------------------------------12-------------------|
A|------------------------------14---------------------|
E|-----------------------------------------------------|

e|--------------------------------------------------------|
B|-14-12--14-10-14-12--14-10~----------14-12--------------|
G|----------------------------------13--------14--13~-----|
D|-------------------------------14--------------------14-|
A|--------------------------------------------------------|
E|--------------------------------------------------------|


e|------------------------------|
B|-15-14--15-12--15-14--15--12~-|
G|------------------------------|
D|------------------------------|
A|------------------------------|
E|------------------------------|

e|-------------------------------------------|
B|-15-14~------------------------------------|
G|--------14-13~-----------------------------|
D|---------------14-12~----------------------|
A|----------------------14-12~--11-12-14\--4-|
E|-----------------------------------------2-|
                                 *  *
End solo

Play Riff 1

Ending (clean)
e|------------------------------------2-|
B|------------------------------------2-|
G|------------------------------------2-|
D|------0---0------------0---0--------4-|
A|----4---4---4---4----4---4---4---4--4-|
E|--2-----------2----2-----------2----2-|


#4
Thanks, but any chance of a gp5 or powertab?
I don't know what to put in my sig...


How about my gear: -
o Epiphone Les Paul 100
o VOX DA5



how bout a quote?



Originally Posted by *someone*
*something funny or reffering to me*



#6
thanks heaps
I don't know what to put in my sig...


How about my gear: -
o Epiphone Les Paul 100
o VOX DA5



how bout a quote?



Originally Posted by *someone*
*something funny or reffering to me*