#1
tbh its not finished yet this is just a bunch of tabs ive came up with please tell me what you think any opinions are welcomed here are the tabs

thrash song this was tabbed out quickly so the timing on some bits may be off
intro
e-------------------------------------------------------0
B------------------------------------------------------0
G----0-----2-----4------0-----2-----4-----0-------0
D------------------------------------------------------0
A--0-----2-----4-----0-----2-----4-----0-----0---0
E-0-----2-----4-----0-----2-----4-----0-------0--0 *this part sounds best when played slowly
with a heavily chorused tone and with
the notes left ringing
Distorted part (riff A)
e-----------------------------------------------------------------------------
B------------------------------------------------------------------------------
G-----------------------------------------------------------------------------
D------------------------------------------------------------------------------
A-2----------2-5-0-4----2-5-0-4----2-5-0-4----2-5-0-4----2-5-0-4
E-0(hold)--0-3-0-2----0-3-0-2----0-3-0-2----0-3-0-2----0-3-0-2-

(riff B)
e----------------------------------------------------------
B----------------------------------------------------------
G----------------------------------------------------------
D----------------------------------------------------------- (x3)
A----------5/4-----------7/6----------5/4----------9/8
E-000003/2--000005/4- 000003/2-000007/6

verses
see riff B

chorus
e---------------------------------------
B---------------------------------------
G---------------------------------------
D-9---------7--------9---------5-----
A-7-7-5---5-5-3---7-7-5---3-3-2
E---5-3------3-1------5-3------1-0


any way im currently working on the bridge section and im trying to come up with a way of arranging the guitar parts in order to avoid a typical metal solo
99-------------55--------6666-------44-----444
99-------------55-----66-----66-----44-44--44
99-------------55-----66--66666---44--44--44
99-------------55-----66-------66---44--------44
99999999---55------66--------66--44--------44