#1
Solo /wah
|-12-\----------------------------------------------------------------|
|-12-\-----------------------------9-12p9-9-12p9-9-10-9---------------|
|-------9vvv-----9--10b11r10-11b13-----------------------10p9-10p9----|
|------------10----------------------------------------------------10-|
|---------------------------------------------------------------------|
|---------------------------------------------------------------------|

|-12-\------------------------------------------|
|-12-\---------------------15b17r15---15b17vvv--|
|--------9vvv----9--9b10------------------------|
|-------------10--------------------------------|
|-----------------------------------------------|
|-----------------------------------------------|

What does V mean?

I normally play by ear...but im not too good at it when somebody likes the wah pedal too much *cough* Hammett *cough*