#1
Ok Hi I'm new here but I'm using this site around a year to play songs.
aneway my friend and I have an argument about how to play the song "System Of A Down-Lonely day"
he thinks it's sounds like that


--------------------------------------0------------------------1---------
---------------------------------------------------3---------------------0
-------------------------------0----0-----0-----2-----0----0------0---2
--------------------------------1--1-------0--0--------2--2--------2-2-
----------------------------------0---------2------------0----------1---
-------------------------------------------------------------------------
read from right to left
but in you site it goes like that
D#|-------------------------------------------------------------------------|
A#|------1-----------0------------1------------0----------------------------|
F#|----2---2-------2---2--------0---0--------1---1--------------------------|
C#|--2-------0---2-------2----2-------2----0-------0------------------------|
G#|0------------------------3-----------------------------------------------|
C#|------------3-------------------------2----------------------------------|

what is the correct one and what virson is good for Classic guitar

thank you.
#3
Tab does not read from right to left.

Now...who do you think is more right? Your friend? Or the tab from the site?