#1
Whats the fingering for playing these kind of power chords?

----------------
--5---7---9---
--5---7---9---
--5---7---9---
--3---5---7---
----------------
#3
1 & 3 used to bar the rest of the way down.

It'd look something like this from the nut:

x1333xx
Imagination is more important than knowledge...
It is a miracle that curiosity survives formal education.
- Albert Einstein -
#4
why would it be embarassing
you can play this two ways and somebody correct me if im wrong but the first would be :
you first finger on the 3rd fret,second the string below-5th fret,third the string below-5th fret and your pinky on the last 5th fret
and i saw dude play this chord just with their first and pinky finger
that would be your first finger on the 3rd fret,and with your pinky press the other 5th frets
same for the other two chords
#5
you dont have 2 play all of those notes i would just play
----------------
----------------
--5---7---9---
--5---7---9---
--3---5---7---
----------------

or

----------------
----------------
----------------
--5---7---9---
--3---5---7---
----------------
#7
Quote by hairypineapple
Whats the fingering for playing these kind of power chords?

----------------
--5---7---9---
--5---7---9---
--5---7---9---
--3---5---7---
----------------
those aren't power chords. a power chord just has roots and fifths.

the notes on the second string are thirds.
These are power chords

----------------
----------------
--5---7---9---
--5---7---9---
--3---5---7---
----------------


----------------
----------------
--5---7---9---
--5---7---9---
--3---5---7---
--3---5---7---


the easiest way is to use your index for the notes on the third fret (in the first of each example) and your ring for the fifth fret.

but other fingerings are possible and may be useful going to or from other chords from these.
Meadows
Quote by Jackal58
I release my inner liberal every morning when I take a shit.
Quote by SK8RDUDE411
I wont be like those jerks who dedicate their beliefs to logic and reaosn.
#8
your index finger pressing the whole fret and the other three on other notes.

----------------
--5---7---9---
--5---7---9---
--5---7---9---
--3---5---7---
----------------

in this case, you have ur index finger on the whole third fret. and lay the others.
If all else fails, you better contact your mother! COME ON!

::type
#9
i would use a bar on the notes in the same frets. i use my pinky, but you can use your ring finger if it's more comfortable. and honestly, there is no "correct" fingering, just what is comfortable. i have pretty big fingers and its near impossible for me to put three fingers in one fret, so i use a bar. just do whats comfortable.
Jackson RR Professional, early 90's japanese model, with EMG's

Digitech GNX3000

Crate GX 212
#12
So its not considered wrong to use your pinky on these? I use that, and something tells me that its keeping me from being as good as possible, just seems like a waste having two fingers hanging there in the middle rather than having a pinky off to the left to hit more notes with.