#1
There's an existing tab for this song, here:

http://www.ultimate-guitar.com/tabs/m/misc_unsigned_bands/faraquet_-_cut_self_not_tab.htm?view_on&comm

However it's completely and utterly wrong. Seriously, you might as well be playing a different song.

So I started tabbing it myself. I've slowed it down 50% in Audacity and that's helped a lot, but I'm still struggling on a couple of bits.

Specifically, the "chord-y" bit at 0:52, and the outro from 2:42 onwards. Also I need help identifying the chord played at (2:02)

Link to song: http://stormx.no-ip.org/faraquet_cutselfnot.mp3

Tab so far:

WORK IN PROGRESS!!!!

Structure
---------
(0:00) 1x Intro Riff
(0:04) 4x Riff 1
(0:12) 4x Riff 2
(0:22) 4x Riff 3
(0:28) 4x Riff 4
(0:38) 1x Riff 1
(0:40) Quiet bit
(0:45) 2x Riff 4
(0:50) 1x Riff 1
(0:52) Chord-y bit
(1:13) 4x Riff 5
(1:22) 1x Riff 5 Coda
(1:25) 4x Riff 4
(1:35) 4x Riff 1
(1:43) 4x Riff 2
(1:52) 4x Riff 3
(1:59) 2x Riff 3 (no p.m., hold notes)
(2:02) A#maj7??
(2:03) 2x Riff 6
(2:12) 1x Riff 6 Coda
(2:16) 4x Riff 4
(2:26) 1x Riff 1
(2:28) 2x Riff 6
(2:37) 1x Riff 6 Coda
(2:42) Outro


e|--|
B|--|
G|--|
D|--|
A|--|
E|--|


Intro
-----

   1   2   3   4   5   6   7   8   9   10  11  
e|---------------------------------------------|
B|---------------------------------------------|
G|---------------------------------------------|
D|---------2-----------------------2-----------|
A|-5---3p0-----3p0-5-5---5-----3p0-----3p0-5-5-|
E|---------------------------------------------|


Riff 1
------
The timing gets pretty funky between the intro and riff 1. the first
note is on an off beat, exactly one beat after the last note in the intro.

I'm having trouble showing that in a tab without using crazy-go-nuts
time signitures... this is the best I could do...

(note, for the 3-5 bit I slide up on my ring finger)

 1   2   3   4   5   6   1
e|-------------------------|
B|-------------------------|
G|-------------------------|
D|-------------------0h3p0-|
A|-------3---5---3p0-------|
E|-1-----------------------|


Riff 2
------
Starts on an off-beat, but otherwise
easy.

   1   2   3   4   5   6   7   8   
e|---------------------------------|
B|---------------------------------|
G|-------0-2-------------0-2-------|
D|-----------3-0-------------3-0-2-|
A|-----3---------------3-----------|
E|---1---------------1-------------|


Riff 3
------

   1   2   3   4   5
e|---------------------|
B|---(palm mute it!)---|
G|---------------------|
D|---2-----2-----2---3-|
A|---------------------|
E|-2-----2-----2---3---|


Riff 4
------
Two bars of 6, then a bar of 4.

   1 2 3 4 5 6 1 2 3 4 5 6 1 2 3 4
e|---------------------------------|
B|-------3---------3-1-------------|
G|-----2---2-----------2-----0-2---|
D|---3-------3---3-------3-------3-|
A|-1-----------1-----------3-------|
E|---------------------------------|


Quiet Bit
---------

   1 2 3 4 1 2 3 4
e|-----------------|
B|-3---------------|
G|---2-----5-7-5---|
D|-----3-----------|
A|-----------------|
E|-----------------|


Riff 5
------

Two bars of 6, then a bar of 5.

   1 2 3 4 5 6 1 2 3 4 5 6 1 2 3 4 5 |
e|-----------------------------------|
B|-------3---------3-1---------------|
G|-----2---2-3---2-----2-3---0-2-----|
D|---3---------------------------3---|
A|-1-----------1-----------3-------0-|
E|-----------------------------------|


Riff 5 Coda
-----------

e|-------|
B|-------|
G|-------|
D|-2/3/2-|
A|-------|
E|-------|

Riff 6
------
The open D is a little hard to hear, but I assure you, it's there!


   1   2   3   1   2   3   1   2     1   2   3   1   2   3   1   2
e|---------------------------------|---------------------------------|
B|---------------------------------|---------------------------------|
G|-------2-----------2-------------|-------2-----------2---------2---|
D|---3-----3-0---3-----3-0---2-0---|---3-----3-0---3-----3-0---------|
A|-1-----------1-----------3-----0-|-1-----------1-----------3-1-----|
E|---------------------------------|---------------------------------|


Riff 6 Coda
-----------

e|---------------------|
B|-----------------3---|
G|-----2-----2h3-5---5-|
D|---3-----3---------4-|
A|-1-----1-------------|
E|---------------------|

Outro
-----
Incomplete.

e|---------------|
B|-----5---------|
G|-5-7---7-7-5-3-|
D|-------6-6-4-2-|
A|---------------|
E|---------------|

Last edited by Stormx at Nov 9, 2008,
#4
necro bump, good tab man, awesome band - check out anthology 1997-98 if you haven't already