#1
alright so this is either gonna be win or fail judging on the last attempt. so here is the deal, i will start with one note, then the next person will put another note and pretty soon we can get a massive solo/song/whatever going.

The key is A minor but if you want to go out of key feel free to do so
edit: COPY PASTE THE TEMPLATE OF THE PERSON ABOVE SO YOU CAN ADD A NOTE

 
e|---------------------------------------------------------------------------|
B|---------------------------------------------------------------------------|
G|---------------------------------------------------------------------------|
D|---------------------------------------------------------------------------|
A|---------------------------------------------------------------------------|
E|-0--------------------------------------------------------------------------|


here is the first note, you can add whatever just don't go from like the first fret to the 24 first on the high e.

go
Last edited by ironman1478 at Nov 12, 2008,
#2
 
e|---24b~~----------------------------------------------------------------|
B|---------------------------------------------------------------------------|
G|---------------------------------------------------------------------------|
D|---------------------------------------------------------------------------|
A|---------------------------------------------------------------------------|
E|-0--------------------------------------------------------------------------|

||=(|''''|''''|''''|''''|)>-----
#3
What am I bending up to ?
Gear
Guitars
Music Man John Petrucci 6-String (Mystic Dream)
Ibanez S470DXQM (Moonburst)
Jackson JS30RR (Blue)
Silvertone Apocalypse
Amplifiers
Peavey Valveking 212
Peavey Rage 158
Effects
Ibanez Weeping Demon
Digitech Metal Master
#4

----1---
----18-
----6---
----23-
----12-
----9---
I'm that dude with the fro.
Quote by angus fan16
Long story short, a whale flew out of the ocean, landed next to me and shot like a wall of water straight into my face.
#5
 
e|---24b~~----------------------------------------------------------------|
B|-----------------------------------------------2----3-5-5b~~~---------|
G|-----------------------------------2----2--4-----4---------------------|
D|----------------0h2p0h2p4-----2--4----4----------------------------------|
A|--------------3-------------0--------------------------------------------|
E|-0--------------------------------------------------------------------------|

Last edited by seankellyultgtr at Nov 12, 2008,
#6

e|---------------------------------------------------------------------------|
B|---------------------------------------------------------------------------|
G|---------------------------------------------------------------------------|
D|---------------------------------------------------------------------------|
A|---------------------------------------------------------------------------|
E|-0-0-----------------------------------------------------------------------|

cwutididthar?
Quote by 20cdndollars
You are god, floppypick



Floppydick


If that's how you read my name, leave a message saying so on my profile
#7
Quote by seankellyultgtr
 
e|---24b~~----------------------------------------------------------------|
B|-------------------------------------------------------2----3-5-5b~~~---------|
G|---------------------------------2----2--4-----4---------------------|
D|----------------0h2p0h2p4-----2--4----4----------------------------------|
A|--------------3----------------0--------------------------------------------|
E|-0--------------------------------------------------------------------------|


That's in the key of F.
EDIT: I meant F#
I'm that dude with the fro.
Quote by angus fan16
Long story short, a whale flew out of the ocean, landed next to me and shot like a wall of water straight into my face.
#9
Quote by seankellyultgtr
 
e|---24b~~----------------------------------------------------------5------|
B|-----------------------------------------------2----3-5-5b~~~---------|
G|-----------------------------------2----2--4-----4---------------------|
D|----------------0h2p0h2p4-----2--4----4----------------------------------|
A|--------------3-------------0--------------------------------------------|
E|-0--------------------------------------------------------------------------|


back to the key of Am
#10
Can I do it in the key of B#?


-Guitar Gear-
1995 American Fender Strat, EMG 85 pup
Randall RH200 Head
Marshall 1960a Cab
Woods Acoustic
-Bass Gear-
Spector Legend 4 bass
Washburn Bantam bass
Hartke HA2500
Fender Bassman 410H
Play what you love, love what you play
#11
Quote by Jimmyyoung
 
e|---24b~~----------------------------------------------------------------|
B|---------------------------------------------------------------------------|
G|---------------------------------------------------------------------------|
D|---------------------------------------------------------------------------|
A|---------------------------------------------------------------------------|
E|-0--------------------------------------------------------------------------|




I loled quite hard
#13
Quote by Froboarder

----1---
----18-
----6---
----23-
----12-
----9---

is that even even a chord?
#14
Quote by ironman1478
is that even even a chord?

Im sure it is, you just have to be willing to dislocate your fingers to find out
-Guitar Gear-
1995 American Fender Strat, EMG 85 pup
Randall RH200 Head
Marshall 1960a Cab
Woods Acoustic
-Bass Gear-
Spector Legend 4 bass
Washburn Bantam bass
Hartke HA2500
Fender Bassman 410H
Play what you love, love what you play
#15
Well, I suppose you could just hammer-on the entire chord at once.
Using your left hand, hammer on to the 1 and 6.
Using your right hand, hammer on to the 9, 12, and 18.
Using your nose, hammer on to the 23.
I'm that dude with the fro.
Quote by angus fan16
Long story short, a whale flew out of the ocean, landed next to me and shot like a wall of water straight into my face.
#16
Quote by Froboarder
Well, I suppose you could just hammer-on the entire chord at once.
Using your left hand, hammer on to the 1 and 6.
Using your right hand, hammer on to the 9, 12, and 18.
Using your nose, hammer on to the 23.



I demand pics. Or a youtube vid
-Guitar Gear-
1995 American Fender Strat, EMG 85 pup
Randall RH200 Head
Marshall 1960a Cab
Woods Acoustic
-Bass Gear-
Spector Legend 4 bass
Washburn Bantam bass
Hartke HA2500
Fender Bassman 410H
Play what you love, love what you play
#17
 
e|---24b~~----------------------------------------------------------------|
B|---------------------------------------------------------------------------|
G|---------------------------------------------------------------------------|
D|---------------------------------------------------------------------------|
A|---------------------------------------------------------------------------|
E|-0----------1----------------------------------------------------------------|

#18
Quote by ironman1478
is that even even a chord?

Sure, it's a C6#3b9 with an omitted fifth.
I'm that dude with the fro.
Quote by angus fan16
Long story short, a whale flew out of the ocean, landed next to me and shot like a wall of water straight into my face.
#19
Quote by Froboarder
Sure, it's a C6#3b9 with an omitted fifth.

i have no idea if you are sarcastic or are being serious lol.
also guys add to the song
#20
Quote by Froboarder
Sure, it's a C6#3b9 with an omitted fifth.

C6#3b9?

Ohhhhh, You mean a C6#7b9 with an omitted seventh..

I got it now.
#21


e|---24b~~---------------------------------------------------------------------------------------------------------------|
B|-----------------------------------------------2----3-5-5b~~~--------------------------------------------------------|
G|-----------------------------------2----2--4-----4-----------------------------------------------------------------------|
D|----------------0h2p0h2p4-----2--4----4-----------------------------------------------------------------------------|
A|--------------3-------------0---------------------------------------------------------------4----5----4------5-5-------|
E|-0-----------------------------------------------------------------0-0-0-0-0-0-0--2-2-----2----2---------3-3------|
Quote by 20cdndollars
You are god, floppypick



Floppydick


If that's how you read my name, leave a message saying so on my profile
#22
Quote by zzeazz
C6#3b9?

Ohhhhh, You mean a C6#7b9 with an omitted seventh..

I got it now.

Well if your seventh is omitted it no longer makes it a dominant chord. =P
Therefore, mine was right.
Another name for it can be F+add13 (F augmented with an added 13)
I'm that dude with the fro.
Quote by angus fan16
Long story short, a whale flew out of the ocean, landed next to me and shot like a wall of water straight into my face.
#23
Quote by floppypick


e|---24b~~---------------------------------------------------------------------------------------------------------------|
B|-----------------------------------------------2----3-5-5b~~~--------------------------------------------------------|
G|-----------------------------------2----2--4-----4-----------------------------------------------------------------------|
D|----------------0h2p0h2p4-----2--4----4-----------------------------------------------------------------------------|
A|--------------3-------------0---------------------------------------------------------------4----5----4------5-5-------|
E|-0-----------------------------------------------------------------0-0-0-0-0-0-0--2-2-----2----2---------3-3------|


e|---------------------------------------------------------------------------|
B|---------------------------------------------------------------------------|
G|-5--------------------------------------------------------------------------|
D|-3--------------------------------------------------------------------------|
A|---------------------------------------------------------------------------|
E|---------------------------------------------------------------------------|



added in a F5 because i can
#24
Quote by ironman1478
added in a F5 because i can

Badass.
I'm that dude with the fro.
Quote by angus fan16
Long story short, a whale flew out of the ocean, landed next to me and shot like a wall of water straight into my face.
#25
e|---24b~~---------------------------------------------------------------------------------------------------------------|
B|-----------------------------------------------2----3-5-5b~~~--------------------------------------------------------|
G|-----------------------------------2----2--4-----4-----------------------------------------------------------------------|
D|----------------0h2p0h2p4-----2--4----4-----------------------------------------------------------------------------|
A|--------------3-------------0---------------------------------------------------------------4----5----4------5-5-------|
E|-0-----------------------------------------------------------------0-0-0-0-0-0-0--2-2-----2----2---------3-3------|


e|---0~~---------------------------------------------------------------------|
B|---0~~---------------------------------------------------------------------|
G|-5-0~~----------------------------------------------------------------------|
D|-3-0~~----------------------------------------------------------------------|
A|---0~~---------------------------------------------------------------------|
E|---0~~---------------------------------------------------------------------|
kill all humans
#26
Quote by floppypick

e|---------------------------------------------------------------------------|
B|---------------------------------------------------------------------------|
G|---------------------------------------------------------------------------|
D|---------------------------------------------------------------------------|
A|---------------------------------------------------------------------------|
E|-0-0-----------------------------------------------------------------------|

cwutididthar?


Woah! is that a new Slayer song?
Quote by bradulator
Iceland has the coolest women.