#1
Heya guys,

I have a question,
Can anybody give me a a standart blues riffs form my guitar?

I wanna play some blues with my friends an so i need them.

Thanks
Wakdul
#3
go to the lesson section in UG, find the blues licks thread, and google?
Quote by allislost
I would say that aetherspear speaks nothing but the truth.
UG Blues Group
UG Reggae & Dub Group
Need Professional Mixing for cheap? Need Vinyl to Digital Transfers? PM Me.
#4
Mannish Boy, Born Under A Bad Sign, some others.
Last.fm

Fender Deluxe Players Strat > Big Muff > LPB-1 > Moog Ring Mod > MXR Dynacomp > MXR Phase 90 '74 > Fender Hot Rod 410 (soon)
#5
-------------------------------------
-------------------------------------
---------------------------------------
--2--2---4--4---2---2---4---4---2---2---4---4---5---5--4---4
--0--0---0--0---0---0---0---0---0---0---0---0---0---0--0---0--------
---------------------------------------
Quote by Tatersalad1080
do what jimbleton said


^ i did something good!!

Quote by tjhome28
This.


^ to something i said!

☭UG Socialist Party ☭
#6

I----------5---------8-10-(12)rb10-8-----------------------5~~~---I
I--------5---7/10~~------------------10-10~~----------------------I
I--7b(9)---------------------------------------7br--p5------------I
I-------------------------------------------------------7---------I
I--root--------root------------------root------------------root---I
I-----------------------------------------------------------------I





 I-------------------I
 I-------------------I
 I-----7-7-5-5-------I
 I-------------7-7---I
 I-5-5---------------I
 I-------------------I




 I--------------------I--------------------I--------------------I--------------------I
 I--------------------I--------------------I--------------------I--------------------I
 I--------------------I--------------------I--------------------I--------------------I
 I--------------------I--------------------I--2-2-4-4-2-2-----2-I--2-2-4-4-2-2-----2-I
 I-2-2-4-4-2-2-----2--I--2-2-4-4-2-2-----2-I--0-0-0-0-0-0-3/4---I--0-0-0-0-0-0-3/4---I
 I-0-0-0-0-0-0-3/4----I--0-0-0-0-0-0-3/4---I--------------------I--------------------I




I----------------------------------------------I
I----------------------------------------------I
I----3---3-5p3h5br-p3h5p3----------------------I
I-/5---5------------------5p3h5-5---3---3-5-5\-I
I---------------------------------5---5--------I
I----------------------------------------------I
98% of teens have been around or have had alcohol. Put this in your sig if you like bagels.

Quote by NeoGuitarist
NeoGuitarist is t3h 1337z0rz!
Last edited by NeoGuitarist at Nov 20, 2008,
#7
|--------------12------------------------------------------------------|
|----------12-----15-12-15-12------------------------------------------|
|-14b16--------------------------14-12-14-12---------------------------|
|----------------------------------------------14~---------------------|
|----------------------------------------------------------------------|
|----------------------------------------------------------------------|


FTW^
#11
Quote by MapOfYourHead
|--------------12------------------------------------------------------|
|----------12-----15-12-15-12------------------------------------------|
|-14b16--------------------------14-12-14-12---------------------------|
|----------------------------------------------14~---------------------|
|----------------------------------------------------------------------|
|----------------------------------------------------------------------|


FTW^


+1!!