♣♠24 Fret♠♣ posts

Found 141 results

Content
Thread
Forum
Date
Looks sick HNGD

I woulda liked to be the guy who got Satriani's sig, on my guitar but thats just me

nice guitar anyway.
SEXY

Ibanez rocks HNGD
I love kramers

HNGD
looks good


HNGD!
yea i did that with my friend's dad's 1974 Gibson SG.

It didnt break but i almost had a heart attack.
looks f***in AWESOME I love ibanezes


HNGD
this thread really brought the lulz


am i a sick person??


I didnt know you could get that stuff
looks really nice.

Tele's are one of those guitars that look best nice and simple imo.

Yours truly has a simple-fender liik to it.

HNGD!!!
Ok, so i searched bar-ed this and nothing came up.

I want you UGers to post a link to your favorite song at a live performance you have ever seen in video, but but didn't see in real life. Please keep it at a single song not a full concert.

here I'll start

http://www.youtube.com/watch?v=j_7iRZzlSzI&feature=related

PS sorry if this has been done before
no


we rock -- Dio
Quote by Jmoarguitar
boooze, and don't stop drinkin till there all gone. if you live you ccan then recycle the bottles



this is it





Best story in a long time
fade to black -- metallica

Voodoo child (live at woodstock) -- Jimi Hendrix

I Dont Know (live) -- Ozzy Osbourne

Used to Love her -- Guns n Roses

For the Love of God -- Steve Vai
no

Get The Hell out of Here -- Steve Vai
Hey

I found a 400w pyramid GA410 for $80. Is it worth it 2 buy it? All I have now is a line 6 spider 3. I play just about everything and need a really versatile amp.


Edit: I have an RG4EXFM1 soon 2 have Dimarzio Evolutions
Quote by Lobyte
(Invalid img)




awesum!

looks good man, HNGD

how much did she cost ya?
nope


the last fight-- velvet revolver
Ok this might have been asked before or it might not exist, but is there any website, other than ebay, I can find a trashed guitar to fix up?
Mama I'm Coming home by Ozzy Osbourne

the solo uses E major pentatonic
wow, never even thought of that.


I know what's for lunch tomorow
Ok the practice technique I used to get fast was scale fragments. They're playled as triplets like this.


E-----------------------l
B-----------------------l
G-4-5-7-4-5-7-4-5-7l
D-----------------------l
A-----------------------l
E ----------------------l

E-----------------------l
B-----------------------l
G-7-5-4-7-5-4-7-5-4l
D-----------------------l
A-----------------------l
E ----------------------l


E-----------------------------l
B-----------------------------l
G--------4-5-7-------4-5-7l
D-4-5-7-------4-5-7-------l
A-----------------------------l
E ----------------------------l


E-----------------------------l
B-----------------------------l
G-7-5-4-------7-5-4-------l
D--------7-5-4-------7-5-4l
A-----------------------------l
E ----------------------------l

E-------------------------------l
B-------------------------------l
G--------4------------4-------l
D-4-5-7--7-5-4-5-7--7-5-4l
A-------------------------------l
E ------------------------------l

E-------------------------------l
B-------------------------------l
G-7-5-4--4-5-7-5-4--4-5-7l
D--------7------------7--------
A-------------------------------l
E ------------------------------l


Repeat multiple times

the other set is played the same way usin a 2-3-5 pattern on the G string again

Start off at a slow tempo and work your way up.

Thes better help due to the time i spent in It.

Good luck man
no

two minutes to midnight by iron maiden
First, yea its mostly personal preference


also if you do something to the guitar yourself you feel more "connected" to it.
...Or at least I do
I scoop out the whales eyes and let the wonder onto crowded beaches killing millions
you cant prove it!!!


same question









(Invalid img)


*sigh* too bad im broke...
it will continue


then what?
no

the zoo by---> scorpions


AMX




plymouth cuda



Dodge charger


mach 1 fastback
I cant believe its getting canceled for the cleveland show.

If there's going to be a spin-off it shouldah been the Boomhauer show