Content
Thread
Forum
Date
hey there,
didnt find a special thread for this...
my "acitivity on my contribution" panel when i go to "my contributions" is not working since a couple of weeks. i still get the mail that something has been rated or commented on... just not there.
is this a common thing right, i havent been checking too much lately...
anyways, hoping to get some answers
thanks in advance

Tim
hey emad

i updated my tab and i guess it somehow ended up without the chords. everything else is fine, the chords are just notes as [ch]D[/ch] and not chords.

heres the tab
http://tabs.ultimate-guitar.com/r/red_hot_chili_peppers/brendans_death_song_tab.htm

thanks in advance (thought id post it here, prob doesnt matter)

necrion
wow me again but this time its the way round. a tab i posted was misspelled. and i wrote that on top of the tab... still got approved which it should not have.
can u take down the tab (its unnecessary anyways, theres the same one posted by someone else under the correct name)

http://tabs.ultimate-guitar.com/b/bon_iver/halocene_crd_1063999id_08062011date.htm

thanks man
oh and it has not been "rejected", it has been "denied". by someone special.
thanks for the great reply! check my tabs, those are not spam. and also please check the link you posted. those are 30 tabs, 20 about a solo, ridiculously easy and obvious which i included, and 10 about the chords, all wrong in most parts. also, the tab has been approved by someone, i mean does this feedback thing in the queue even count as anything? i dont wanna give 300 more votes in the queue if in the end its just one guy who just looks at numbers. and thanks for reading my comment i posted in the queue.
last point: my tab not only includes all the notes for the original version but also a perfected interpretation for an acoustic play! not just a solo in one line. no disresptect but half of those are unregistered, posted almost 10 years ago... those arent even account, some tabs are copied. I know you can delete tabs, why not do that?
please give me more than 1 line as an answer this time.

thank you, once again.

necrion
hey emad. great addition got rejected, had a long comment on the tab when it was in the queue and noone read it.

uncle kracker
follow me

acoustic, detailed, solo andriffs included. perfect tab. i dont post unnecessary tabs.

thanks

have a great day
ther is ONE tab for the song yet. its 4* and HALF of it is WRONG! also it only has lyrics for not even half of the song. that tab is ridiculous.
joshua radin - do you wanna chords
not approved, there is one version up but it has mistakes in it and the tabs owner does communicate with me (the tab is mostly WRONG)
I dont make unnecessary tabs, trust me!

http://www.ultimate-guitar.com/home/tab_detail.php?tabid=1022474
Quote by scotto10
Song name: Come Take Me Now
Artist: Saigon Kick
Tab type: Guitar Pro, whole song

Song name: Ill Still Be Loving You
Artist: Restless Heart
Tab type: Guitar, whole song

Song name: Talk To The Moon
Artist: Pink Cream 69
Tab type: Guitar Pro, whole song


The first one "Come Take Me Now" was submitted on Christmas. I saw a vote for approval and then it sat there with nothing happening. It finally disappeared a few days ago. It shows as "W" in my profile but its not in the approval queue nor posted with other active tab either. My profile shows zero contributions. It just went into limbo.

The same thing happened to the next one, "Ill Still Be Loving You" except I submitted it a few days later and saw no votes before it disappeared.

I guess I am waiting for my last tab, "Talk To The Moon" to succumb to the same fate although it has two votes for approval now. It was submitted on Jan 3 but is at least still in the approval queue.

What's up? Thanks.


Well my tabs have been "sitting" there as well. I dont i need to mention the 5 names etc. but maybe its because u guys have changed to approval site? cuz i cant find it there either...

anyways maybe u can just approve this one tab personally:

Misc Unsigned Bands
Ready Set Fall - Skyscrapers
Tab, Whole Song


Thanks emad
Well I usually get mails if someone approved/rejected/commented on my tab.
and im not trying to be mean but i think some songs like metallicas enter sandman and pink floyds wish you were here have WAY too much approved tabs (most mediocre/horrible).
And i think you moderators should be able to give a tab rating which puts it up front or down.

Like the best tabs are on top and the unnessecary ones are "not highlighted" so starters know which one to choose (most of my friends usually get confused).
and i dont want to destroy peoples work but most of these "tabs" are from unregistered users and some songs NEED better tabs/solos/chords, what ever...

You guys should definately be able to still interact after a tab has been approved!
Well as a start, I always write on the end of my tab something like "If you liked the tab, please leave a comment and rate. and feel free to correct me via comment or pm"

I think that might help some people to give a feedback...

Oh and i left my e-mail address (I know, welcome spammers) but i actually got over 100 mails for many different tabs which really helped me.

Maybe it will help u as well

Necrion
lol im dissapointed, thats all im saying. so many f*ucked up tabs by some "unregistered"...
i can even count 7, no 8 of them for wish you were here...

sorry for getting u pissed off but as u can see this helped noone, so i just stop arguing. sorry for disturbing u...
emad please look up the tabs and show me a better one... i dont wanna be rude but i ONLY posted tabs that were necessary (except that eminem thing), im not one of those people who put up those really short, misleading tabs. my tabs have format! u can see that...
and its just a damn great song and i couldnt find a appropriate solo tab... or is that just me?
hey emad
again my tab got denied. i knew that would happen...
but jesus its stil the ****in best tab around and people should see that. i know there are like 30 other tabs but if they would take 2 minutes and check the solos, they would know...
well i hope u can help me...
Pink Floyd - Wish You Were Here (Solo)

i submitted it again...
yes emad but as u have seen all the tabs are 4 tabs max!
but forget it, i dont need the tab so badly...
thats exactly what he wants
this looks messed up but its in right order if i post it...
heres the tab
Artist: Eminem
Song: Love The Way You Lie ft. Rihanna
Album: Recovery
tabbed by: Necriononguitar
e-mail: tim.rathgen@gmx.de

REAL FANS SUPPORT ARTISTS BY PURCHASING THEIR CD'S!!!


Tuning: Standard

Capo: 3


Chords:
[ch]Em[/ch] [ch]C[/ch] [ch]G[/ch] [ch]D/F#[/ch]
E---0----0-or-3---3----3-------------
B---0----1--------3----3-------------
G---0----0--------0----2-or-0--------
D---2----2--------0----0-------------
A---2----3--------2----0-------------
E---0----x--------3----2-------------


Here's the strumming for the Acoustic guitar: d=down u=up
[ch]Em[/ch] [ch]C[/ch]
E------0----0-0-0-0----0---0-0---0-0-----0----3-3-3-3------3---3-3------
B------0----0-0-0-0----0---0-0---1-1-----1----1-1-1-1------1---1-1------
G------0----0-0-0-0----0---0-0---0-0-0---0----0-0-0-0---0--0---0-0------
D---2--2----2-2-2-2-2--2---2-2---2-2-2---2----2---------2--2---2-2------
A---2---------------2------------3-3-3--------3---------3---------------
E---0---------------0---------------------------------------------------
[ch]d[/ch] [ch]d[/ch] [ch]d[/ch] u [ch]d[/ch] u [ch]d[/ch] [ch]d[/ch] [ch]d[/ch] u [ch]d[/ch] u [ch]d[/ch] [ch]d[/ch] [ch]d[/ch] u [ch]d[/ch] u [ch]d[/ch] [ch]d[/ch] [ch]d[/ch] u

[ch]G[/ch] [ch]D/F#[/ch]
E------3----3-3-3-3----3---3-3----------3----3-3-3-3----3----3-3-----
B------3----3-3-3-3----3---3-3----------3----3-3-3-3----3----3-3-----
G------0----0-0-0-0----0---0-0----------2----2-2-2-2----2----2-2-----
D---0--0----0-0-0-0-0--0---0-0----0--0--0----0-0-0-0-0--0----0-0-----
A---2---------------2-------------0--0-------0-0-0-0-0--0----0-------
E---3---------------3-------------2--2---------------2---------------
[ch]d[/ch] [ch]d[/ch] [ch]d[/ch] u [ch]d[/ch] u [ch]d[/ch] [ch]d[/ch] [ch]d[/ch] u [ch]d[/ch] [ch]d[/ch] [ch]d[/ch] [ch]d[/ch] u [ch]d[/ch] u [ch]d[/ch] [ch]d[/ch] [ch]d[/ch][The FULL Chords n Lyrics]


[Rihanna] *Piano*
[ch]Em[/ch] [ch]C[/ch]
Just gonna stand there and watch me burn
[ch]G[/ch] [ch]D/F#[/ch]
But that's alright because I like the way it hurts
[ch]Em[/ch] [ch]C[/ch]
Just gonna stand there and hear me cry
[ch]G[/ch] [ch]D/F#[/ch] (hit once) [ch]Em[/ch]
But that's alright because I love the way you lie ...love the way you lie


[Eminem] *Acoustic*
[ch]Em[/ch]
I can't tell you what it really is, I can only tell you what it feels like
[ch]C[/ch]
And right now there's a steel knife in my windpipe
[ch]G[/ch]
I can't breathe but I still fight while I can fight
[ch]D/F#[/ch]
As long as the wrong feels right it's like I'm in flight
[ch]Em[/ch] [ch]C[/ch]
High of a love drunk from the hate it's like I'm huffing paint
[ch]G[/ch]
And I love it the more that I suffer, I sufficate
[ch]D/F#[/ch]
And right before im about to drown she resuscitates me, she ****ing hates me
[ch]Em[/ch]
And I love it - "Wait, Where you going?"

"I'm leaving you!"
[ch]C[/ch]
"No you ain't, Come back !"
[ch]G[/ch]
We're running right back, Here we go again, It's so insane

Cause when it's going good It's going great
[ch]D/F#[/ch]
I'm Superman with the wind in his bag
[ch]Em[/ch]
She's Lois Lane but when it's bad it's awful
[ch]C[/ch]
I feel so ashamed, I snap "Who's that dude?"
[ch]G[/ch]
I don't even know his name I laid hands on her
[ch]D/F#[/ch]
I'll never stoop so low again, I guess I don't know my own strength


[Rihanna] *Acoustic*
[ch]Em[/ch] [ch]C[/ch]
Just gonna stand there and watch me burn
[ch]G[/ch] [ch]D/F#[/ch]
But that's alright because I like the way it hurts
[ch]Em[/ch] [ch]C[/ch]
Just gonna stand there and hear me cry
[ch]G[/ch] [ch]D/F#[/ch]
But that's alright because I love the way you lie I love the way you lie


[ch]Em[/ch] [ch]C[/ch] [ch]G[/ch] [ch]D/F#[/ch]


[Eminem] *Acoustic* U know the chords
You ever love somebody so much
You can barely breathe
When you're with them
You meet
And neither one of you
Even know what hit 'em
Got that warm fuzzy feeling
Yeah them chills
Used to get 'em
Now you're getting ****ing sick
Of looking at 'em
You swore you've never hit 'em
Never do nothing to hurt 'em
Now you're in each other's face
Spewing venom
And these words
When you spit 'em
You push
Pull each other's hair
Scratch, claw, bit 'em
Throw 'em down
Pin '[ch]em[/ch]
So lost in the moments
When you're in 'em
It's the rage that took over
It controls you both
So they say it's best
To go your separate ways
Guess that they don't know ya
Cause today
That was yesterday
Yesterday is over
It's a different day
Sound like broken records
Playin' over
But you promised her
Next time you'll show restraint
You don't get another chance
Life is no Nintendo game
But you lied again
Now you get to watch her leave
Out the window
Guess that's why they call it window pane


[Rihanna] *Acoustic*
[ch]Em[/ch] [ch]C[/ch]
Just gonna stand there and watch me burn
[ch]G[/ch] [ch]D/F#[/ch]
But that's alright because I like the way it hurts
[ch]Em[/ch] [ch]C[/ch]
Just gonna stand there and hear me cry
[ch]G[/ch] [ch]D/F#[/ch]
But that's alright because I love the way you lie I love the way you lie


[ch]Em[/ch] [ch]C[/ch] [ch]G[/ch] [ch]D/F#[/ch]


[Eminem] *Acoustic*
Now I know we said things
Did things
That we didn't mean
And we fall back
Into the same patterns
Same routine
But your temper's just as bad
As mine is
You're the same as me
But when it comes to love
You're just as blinded
Baby please come back
It wasn't you
Baby it was me
Maybe our relationship
Isn't as crazy as it seems
Maybe that's what happens
When a tornado meets a volcano
All I know is
I love you too much
To walk away though
Come inside
Pick up your bags off the sidewalk
Don't you hear sincerity
In my voice when I talk
Told you this is my fault
Look me in the eyeball
Next time I'm pissed
I'll aim my fist
At the dry wall
Next time
There will be no next time
I apologize
Even though I know it's lies
I'm tired of the games
I just want her back
I know I'm a liar
If she ever tries to ****ing leave again
I'mma tie her to the bed
And set the house on fire


[Rihanna] *Acoustic*
[ch]Em[/ch] [ch]C[/ch]
Just gonna stand there and watch me burn
[ch]G[/ch] [ch]D/F#[/ch]
But that's alright because I like the way it hurts
[ch]Em[/ch] [ch]C[/ch]
Just gonna stand there and hear me cry
[ch]G[/ch] [ch]D/F#[/ch]
But that's alright because I love the way you lie I love the way you lie


[ch]Em[/ch] [ch]C[/ch] [ch]G[/ch] [ch]D/F#[/ch]
[ch]Em[/ch] [ch]C[/ch] [ch]G[/ch] [ch]D/F#[/ch]
hey emad,
another tab got rejected, its Eminem - Love The Way You Lie
ill post it again, can u approve it? the other tab is very short, so i posted the full chords version....
thanks
hey emad,
my tab is waiting for approve/reject for a few days now, can u take a look at it. i kinda have the feeling its gonna get rejected...
http://www.ultimate-guitar.com/home/tab_detail.php?tabid=950350
well thanks i thought it wouldnt be a full chords-tab cuz of the bars at the end... but soz bout my behavior.... had a rough day...
up again as chords
well i upped it again, please take it this time...
http://www.ultimate-guitar.com/home/tab_detail.php?tabid=948709

i didnt have the edit lines in the end of each bar last time...
o man this whole "rate the tabs u want posted" is bs. im sorry, but my tab was waiting for any reply for like 5 hours and then got denied, no rejection btw.
y dont u guys SEE a good tab.
"""Intro""": (clean)
D---------------------------------
A---------------------------------
F---------------------------------
C---------------------------------
G---0-0-0-0-0-0-0-0---------------
C---3-3-3-3-3-3-3-3---x2----------


"""Verse Part I""": (clean)
D---------------------------------------------------------------------------
A---------------------------------------------------------------------------
F---------------------------------------------------------------------------
C---------------------------------------------------------------------------
G--0-0-0-0-0-0-0-0---0-0-0-0-0-0-0-0---0-0-0-0-0-0-0-0---0-0-0-0-0-0-0-0----
C--3-3-3-3-3-3-3-3---3-3-3-3-3-5-5-5---0-0-0-0-0-0-0-0---0-0-0-0-0-2-2-2----

D----------------------------------------------------------------------
A----------------------------------------------------------------------
F----------------------------------------------------------------------
C----------------------------------------------------------------------
G--0-0-0-0-0-0-0-0---0-0-0-0-0-0-0-0---0-0-0-0-0-0-0-0---0-0-0-0-0-----
C--3-3-3-3-3-3-3-3---3-3-3-3-3-5-5-5---0-0-0-0-0-0-0-0---0-0-0-0-0-----


Part II: (Distortion)
D--------------------------------------------------------------------
A--------------------------------------------------------------------
F--------------------------------------------------------------------
C--------------------------------------------------------------------
G--(2-2)---3-3-3-3-3-3-3-3---3-3-3-3-3-5-5-5---0-0-0-0-0-0-0-0-------
C--(2-2)---3-3-3-3-3-3-3-3---3-3-3-3-3-5-5-5---0-0-0-0-0-0-0-0-------
. . . . . . . . . . . . . . . . . . . . . . . . . .
/I\
D-------------------------------- <-(repeat)-I
A--------------------------------
F--------------------------------
C--------------------------------
G--0-0-0-0-0-2-2-2---------------
C--0-0-0-0-0-2-2-2---------------
. . . . . . . .

D---------------------------------------------------------------------------
A---------------------------------------------------------------------------
F---------------------------------------------------------------------------
C-------3-------3--------3-------5---------0-------0--------0-------2-------
G---3-3-3-3-3-3-3-3--3-3-3-3-5-5-5-5---0-0-0-0-0-0-0-0--0-0-0-0-2-2-2-2-----
C---3-3-3-3-3-3-3-3--3-3-3-3-5-5-5-5---0-0-0-0-0-0-0-0--0-0-0-0-2-2-2-2-----
. . . . . . . . . . . . . . . . . . . . . . . .

D-----------------------------------------
A-----------------------------------------
F-----------------------------------------
C-------3-------3---------3---5-----------
G---3-3-3-3-3-3-3-3---3-3-3-3-5-----------
C---3-3-3-3-3-3-3-3---3-3-3-3-5-----------
. . . . . . . . .

(Some 2. Guitar can play this
D--------8-----------------------8-------------
A--------10----------------------10------------
F-----10-------or simply this----10------------
C--10----------------------------10------------
G----------------------------------------------
C----------------------------------------------


"""Chorus""": (Distortion+Chorus Effects)
D-------------------------------------------
A-------------------------------------------
F-------------------------------------------
C---7-7-7-8-8-8-8--3-3-3-3-3-3-3-3---------- x3
G---7-7-7-8-8-8-8--3-3-3-3-3-3-3-3----------
C---7-7-7-8-8-8-8--3-3-3-3-3-3-3-3----------

D------------------------------------------------------------------------
A------------------------------------------------------------------------
F------------------------------------------------------------------------
C----5-5-5-5-5-5-5-5---0-0-0-0-0-0-0-0---2-2-2-2-2-2-2-2--5~-------------
G----5-5-5-5-5-5-5-5---0-0-0-0-0-0-0-0---2-2-2-2-2-2-2-2--5~-------------
C----5-5-5-5-5-5-5-5---0-0-0-0-0-0-0-0---2-2-2-2-2-2-2-2--5~-------------


Some 2. Guitar: (i can only use MigdtGuitarists way of playing it... its just a background noise)
D--------------------------------------------------------
A--------------------------------------------------------
F---14-14-14-15-15-15-15------------17----------17-------
C-------------------------15--15-15----15-15-15----15----
G--------------------------------------------------------
C--------------------------------------------------------


""""Interlude"""": (Distortion)
D------------------------------------------------------------
A------------------------------------------------------------
F------------------------------------------------------------
C-------3-----3---3-------3----------------------------------
G------------------------------------------------------------
C---3-3---3-3---3-----3-3---3-2-0--3^(pinch, harmonic)-------
. . . . . . . .


"""Verse II""": (Distortion)
D------------------------------------------------------------------
A------------------------------------------------------------------
F------------------------------------------------------------------
C---3---333--3---333-3---5--5-5---0---000--0---000-0---2--2-2------ x2
G---3---333--3---333-3---5--5-5---0---000--0---000-0---2--2-2------
C---3---333--3---333-3---5--5-5---0---000--0---000-0---2--2-2------
. ... . ... . . . . ... . ... . . .


D----------------------------------------------------------------
A----------------------------------------------------------------
F----------------------------------------------------------------
C---3---333--3---333--3-3--3-5---0---000--0---000--0-2--2-2------
G---3---333--3---333--3-3--3-5---0---000--0---000--0-2--2-2------
C---3---333--3---333--3-3--3-5---0---000--0---000--0-2--2-2------
. ... . ... . . . ... . ... . .


D-----------------------------x-----
A-----------------------------x-----
F-----------------------------x-----
C---3---333--3---333--3-5--x--------
G---3---333--3---333--3-5--x--------
C---3---333--3---333--3-5--x--------
. ... . ... .


////Repeat Chorus\\\\


"""Bridge"""": (Distortion)
D-----------------------------------------------------
A-----------------------------------------------------
F-----------------------------------------------------
C--8-8-8-8-8-8-8-8---3-3-3-3-3-3-3-3------------------
G--8-8-8-8-8-8-8-8---3-3-3-3-3-3-3-3---x2-------------
C--8-8-8-8-8-8-8-8---3-3-3-3-3-3-3-3------------------

D----------------------------x----------------x---------
A----------------------------x---x------------x--x------
F-------------------------x--x---x---------x--x--x------
C--8-8-8-8-8-8-8-8----x---x------x------x--x-----x------
G--8-8-8-8-8-8-8-8----x---x-------------x--x------------
C--8-8-8-8-8-8-8-8----x-----------------x---------------
(hold left hand atthe first mute at about 7th fret,second time at 2-4th fret)

D--------------------------------------------
A--------------------------------------------
F--------------------------------------------
C---8-8-8-8-8-8-8-8--8-8-8-8-8-8-8-8---------
G---8-8-8-8-8-8-8-8--8-8-8-8-8-8-8-8---------
C---8-8-8-8-8-8-8-8--8-8-8-8-8-8-8-8---------


""""Breakdown""": (Synthed Guitar or Synthesizer)
D------------------------------------------------------
A------------------------------------------------------
F------------------------------------------------------
C------------------------------------------------------ x4 (whole breakdown)
G---------------------------8-8---8~---(8\)------------
C---7-7--8-8---8~---(8\)-------------------------------

Guitar (Distortion)
D------------------------------------------
A------------------------------------------
F------------------------------------------
C------------------------------------------
G--------------------8-8--8~--8\-----------
C--7-7-7--8-8---8\-------------------------

D------------------------------------------
A------------------------------------------
F------------------------------------------
C------------------------------------------
G----------------------3-3---3-------------
C---7-7-7--8-8---8\----3-3---3-------------
. . .
THE START
Artist: A Day To Remember
Song: Since U Been Gone
Albumfirst released at myspace, after high popularity they released a EP)
tabbed by: necriononguitar (that to MidgtGuitarist for pre-tabbing)
e-mail (No freakin SPAM!): tim.rathgen@gmx.de

REAL FANS SUPPORT BANDS BY PURCHASING THEIR CDS!

Tuning: Drop C

. = Palm-Muted
~ = hold note
^ = vibrate
p = pull off
h = hammer on
/ = slide up
\ = slide down


The End

"""Chorus""", lil different: (Distortion)
D-------------------------------------------
A-------------------------------------------
F-------------------------------------------
C---7-7-7-8-8-8-8--3-3-3-3-3-3-3-3---------- x2
G---7-7-7-8-8-8-8--3-3-3-3-3-3-3-3----------
C---7-7-7-8-8-8-8--3-3-3-3-3-3-3-3----------

D-------------------------------------------
A-------------------------------------------
F-------------------------------------------
C---0-0-0-8-8-8-8--3-3-3-3-3-3-3-3----------
G---0-0-0-8-8-8-8--3-3-3-3-3-3-3-3----------
C---0-0-0-8-8-8-8--3-3-3-3-3-3-3-3----------

D----------------------------------------
A----------------------------------------
F----------------------------------------
C----5-5-5-5-5-5-5-5---0-0-0-0-0-0-0-0---
G----5-5-5-5-5-5-5-5---0-0-0-0-0-0-0-0---
C----5-5-5-5-5-5-5-5---0-0-0-0-0-0-0-0---


Part II:
D-----------------------------------------------------------------
A-----------------------------------------------------------------
F-----------------------------------------------------------------
C---7---888---3---333---333------7---888---3----333-3---7-7-------
G---7---888---3---333---333------7---888---3----333-3---7-7-------
C---7---888---3---333---333------7---888---3----333-3---7-7-------
. ... . ... ... . ... . ... . . .

D-------------------------------------------
A-------------------------------------------
F-------------------------------------------
C---0-0-0-8-8-8-8--3-3-3-3-3-3-3-3----------
G---0-0-0-8-8-8-8--3-3-3-3-3-3-3-3----------
C---0-0-0-8-8-8-8--3-3-3-3-3-3-3-3----------

D----------------------------------------
A----------------------------------------
F----------------------------------------
C----5-5-5-5-5-5-5-5---0-0-0-0-0-0-0-0---
G----5-5-5-5-5-5-5-5---0-0-0-0-0-0-0-0---
C----5-5-5-5-5-5-5-5---0-0-0-0-0-0-0-0---

D------------------------------------------------------------------------
A------------------------------------------------------------------------
F------------------------------------------------------------------------
C----5-5-5-5-5-5-5-5---0-0-0-0-0-0-0-0---2-2-2-2-2-2-2-2--5~-------------
G----5-5-5-5-5-5-5-5---0-0-0-0-0-0-0-0---2-2-2-2-2-2-2-2--5~-------------
C----5-5-5-5-5-5-5-5---0-0-0-0-0-0-0-0---2-2-2-2-2-2-2-2--5~-------------


"""Outro""": (clean, fades in)
D---------------------------------
A---------------------------------
F---------------------------------
C---------------------------------
G---0-0-0-0-0-0-0-0---------------
C---3-3-3-3-3-3-3-3---x4----------

and thats it! i hope u enjoyed, dont forget to rate and comment.
thanks again to MidgtGuitarist!

Cheers...
post it right here?
hey emad,
tab got denied but the tab it def worth it.
its Since U Been Gone by A Day To Remember
(ill resubmit it now)
can u please keep it?
thanks a lot
ive been trying to get a cool profile bachground, text colour and all and i tried a lot... i read these HTML-blogs for like 2 hours and i cant figure it out. that takes u guys just 2 mins, so im just playing the stupid, ignorant guy and ask: can some1 send me a HTML for black background and full dark-red text? im dying to get it!
tpa link?
ill resubmit it now
this is the tab:
Sum 41 - Welcome To Hell
Tuning: Drop D
Email: tim.rathgen@gmx.de

Check Out My Other Covers!
Intro:

G--------
D--------
A--------
E--12\---


Verse: 0:05

G-----------------------------------------------------------------------\
D----------------------------------------------------------------------- \
A--7-7-7-5--7-7-7-5--7-7-7-5--7-7-7-5----------5-5-5-5------------------ / x2
E-------------------------------------3-3-3-3---------3-3-3-3--0-0-0-0--/

G--------------------------------------------------------------------------
D--------------------------------------------------------------------------
A--7-7-7-5--7-7-5-5-----------5-5-5-5--7-7-7-5--7-7-7-5-----------5-5-5----
E--------------------3-3-3-3-----------------------------3-3-3-3-----------

Verse x2

Chorus: 0:34

G-------------------------------------\
D------------------------5-4---------- \ x2
A--3-3-3-3---------5-5-7-----7-5-7---- /
E----------3-3-3-3--------------------/

G--------------------------------------------------------------------------
D-----------5-5-5-5-------5-4----------------------------------------------
A--3-3-3-3----------5-5-7-----7-5-7-------------3-3-3-3----------5-5-5-5---
E---------------------------------------0-0-0-0----------3-3-3-3-----------


Bass-Solo: 0:45

G----------------------------------99999999-------------------------------
D----------5-5-7-5---------5-5-7-7----------9-10-9--7-9-7--5-7-5--4-5-4---
A--7-7-7-7---------7-7-7-7------------------------------------------------
E-------------------------------------------------------------------------


Verse x2

Whole Chorus thing x1


Normal Interlude: 1:14

G------------------------------------------\
D--------9--------------------------------- \
A--7-10-----10-10-------------------------- / x8
E------------------7-10-10--5-7-8-10-10----/

Alternative Interlude (You can also play this, instead of the normal Interlude, for example every 2nd time):

G--------------------------------------------
D-------9---------------------12-10-9--------
A--7-10---10-10------------10---------12-----
E---------------7-10-10-12-------------------

Chrous x1

Outro: 1:48

G----------------\
D----9----------- \ x3
A--77--7--33--55- /
E----------------/


ik it looks kinda messed up, but its right and it looks ok when its posted.
i can submit it again and u just admit it if thats easier for u
ummm if u need to see the tab i can send it to u...
let me know pls
or can u please admit it? its 100% correct im sure.
it took me hours to tab it out ;(
im sure u can help me