Triplet Kills

author: UG Team date: 07/31/2003 category: guitar techniques
rating: 6.2
votes: 13
views: 922
vote for this lesson:
This lesson is about triplets, use strict (down-up-down) picking. This lesson is influenced from Metallica and Megadeth. Start off slow then blast it to warp speed. Its kind of long but break it down to pieces to have finger muscle memory. Have fun.
|--16-15-14-13--------------------------------------| 
|--------------15-14-13-12-------------12h15p15-----| 
|--------------------------15-14-13-12--------------| 
|---------------------------------------------------| 
|---------------------------------------------------| 
|---------------------------------------------------| 

|--7-6-5-4------------------------------------------| 
|----------8-7-6-5---------8---7-8---7-8---7--------| 
|------------------8-7-6-5---9-----9-----9----------| 
|---------------------------------------------------| 
|---------------------------------------------------| 
|---------------------------------------------------| 

|---------------------------------------------------| 
|---------------------------------------------------| 
|--12-9-11-12-9-------------------------------------| 
|---------------11-12-9-11-12-9---------------------| 
|-------------------------------10------------------| 
|----------------------------------12-10-12---------| 

|------------7------------7-7h8p7---5---------------| 
|--8---7-------8---10-7-8---------8---6-5h6p5---5---| 
|----9---7-9-----9----------------------------7---5~| 
|---------------------------------------------------| 
|---------------------------------------------------| 
|---------------------------------------------------|
- Josh Nerez.
Comments
BIU:)
Only "https" links are allowed for pictures,
otherwise they won't appear