Blues Lessons. Part 1 - Blues Ear

author: UG Team date: 07/31/2003 category: guitar styles
rating: 6.2
votes: 28
views: 2,839
vote for this lesson:
This text help to "open the Blues ear..." Enjoy !
Lick 1:                     Lick 2:
|-----------------------5--|--------------------------------------|
|--------------------------|--------------------------------------|
|-8--7--5--7(BU)--5--------|----------------------------8--7------|
|--------------------7-----|----------------------------7--6------|
|--------------------------|-------4--4--5--5--6--6--7--8--7------|
|--------------------------|-5--5---------------------------------|

Lick 3: (Slide into the Notes)            Lick 4: (Slide in the Notes)
|-----12----------11----------10------8--|----------------5-------|
|-12------12--11------11--10------10--8--|-5--7--5--7-------------|
|-------------------------------------9--|-------------6----------|
|----------------------------------------|-5--7--5--7-------------|
|----------------------------------------|------------------------|
|----------------------------------------|------------------------|

Lick 5:
|-------------------------------------7(BU)--5-------------|
|-------------------------------5--------------------------|
|----------------------5--7--8-----7-----------------------|
|----------5-----5--7--------------------------------------|
|-5--6--7-----7--------------------------------------------|
|----------------------------------------------------------|
Comments
BIU:)
Only "https" links are allowed for pictures,
otherwise they won't appear