Blues Lessons. Part 3 - Blues Scales

author: UG Team date: 07/31/2003 category: guitar styles

Sign up to get weekly digest with top stories from UG. Ads free, only news.

Thanks for subscribing! Check your email soon for some great stories from UG

rating: 6.4
votes: 25
views: 2,158
vote for this lesson:
(BU)=Bend Up (RE)= Release (HO)=Hammer On (PU)=Pull Off (V)=Vibrate (SL)=Slide
Lick 1
|--7(BU,RE)--5-------------------------------5-----------|
|---------------7(BU,RE)--5------------------------------|
|----------------------------7(BU,RE)--5-----------------|
|-----------------------------------------7--------------|
|--------------------------------------------------------|
|--------------------------------------------------------|

Lick 2 + Lick 3
|--5--7(HO)--5-----5----|--------------------------------|
|--5--7(HO)--5-----5----|--------------------------------|
|---------------7--6----|--5--7(HO)--5-----5-------------|
|-----------------------|--5--7(HO)--5-----5-------------|
|-----------------------|---------------8--7-------------|
|-----------------------|--------------------------------|

Lick 4
|------------5-------------------------------------------------|
|---------5-----8(PO)--5-----5---------------------------------|
|--7(BU)------------------8-----8--7(PO)--5(PO)----7-----5(V)--|
|------------------------------------------------7----7--------|
|--------------------------------------------------------------|
|--------------------------------------------------------------|

Lick 5
|----------12--15--11(SL)--12----------------------------------|
|------13----------------------13------------------------------|
|--14------------------------------14--12----------------------|
|------------------------------------------14--13--12(V)-------|
|--------------------------------------------------------------|
|--------------------------------------------------------------|

Lick 6
|-----------------------8--7--5--------------------------------|
|--------------------------------5(SL)--7--5-------------------|
|--------------------------------------------------------------|
|-----------------5--------------5(SL)--7--5--------------2----|
|--------5--6--7-----7---------------------------0--1--2-------|
|--5--8---------------------------------------0----------------|

Lick 7
|--------------------------------------------------------------|
|--5---------5---------5---------5-----------------------------|
|-----7(BU)-----7(BU)-----7(BU)-----7--5--4--5(HO)-------------|
|---------------------------------------------------7----------|
|--------------------------------------------------------------|
|--------------------------------------------------------------|

Lick 8
|--5--8-----5--------------------------------------------------|
|--------8-----8--5--8-----5-----------------------------------|
|-----------------------8-----7--8-----5(V)--------------------|
|-----------------------------------7--------------------------|
|--------------------------------------------------------------|
|--------------------------------------------------------------|
Comments
BIU:)
Only "https" links are allowed for pictures,
otherwise they won't appear